Strokes - What Ever Happened Chords & Tabs

 

What Ever Happened Chords & Tabs

Strokes Chords & Tabs

Version: 2 Type: Tab 0 ratings
1 star 2 stars 3 stars 4 stars 5 stars
comments

What Ever Happened Tab

   
“What Ever Happened?”
The Strokes

Intro:

(Mild distortion, semi-palm muted)

e----------------------
G----------------------
B---------------------- x4
D----------------------
A----------------------
E-7-7-7-7-7-7-7-7------

Verse (played twice):

(Mild Distortion)

e-7-7-7-7-7-7-7-7-7-7-7-7-7-7-7-7-
G-7-7-7-7-7-7-7-7-7-7-7-7-7-7-7-7-
B-8-8-8-8-8-8-8-8-8-8-8-8-8-8-8-8-
D-9-9-9-9-9-9-9-9-9-9-9-9-9-9-9-9-
A-9-9-9-9-9-9-9-9-9-9-9-9-9-9-9-9-
e-7-7-7-7-7-7-7-7-7-7-7-7-7-7-7-7-

e-7-7-7-7-7-7-7-7-7-7-7-7-7-7-7-7-
G-9-9-9-9-9-9-9-9-9-9-9-9-9-9-9-9-
B-9-9-9-9-9-9-9-9-9-9-9-9-9-9-9-9-
D-9-9-9-9-9-9-9-9-9-9-9-9-9-9-9-9-
A-7-7-7-7-7-7-7-7-7-7-7-7-7-7-7-7-
e-7-7-7-7-7-7-7-7-7-7-7-7-7-7-7-7-

e-9---9---9---9---9--9---9---9--9---9---9---9---9--9---9---9-
G-9---9---9---9---9--9---9---9--9---9---9---9---9--9---9---9-
B-9---9---9---9---9--9---9---9--9---9---9---9---9--9---9---9-
D-11-11--11--11--11-11--11--11-11--11--11--11--11-11--11--11-
A-11-11--11--11--11-11--11--11-11--11--11--11--11-11--11--11-
E-9---9---9---9---9--9---9---9--9---9---9---9---9--9---9---9-



e-9---9---9---9---9--9---9---9--9---9---9---9---9--9---9---9-
G-9---9---9---9---9--9---9---9--9---9---9---9---9--9---9---9-
B-9---9---9---9---9--9---9---9--9---9---9---9---9--9---9---9-
D-9---9---9---9---9--9---9---9--9---9---9---9---9--9---9---9-
A-11-11--11--11--11-11--11--11-11--11--11--11--11-11--11--11-
E-12-12--12--12--12-12--12--12-12--12--12--12--12-12--12--12-

e-9---9---9---9---9--9---9---9--9---9---9---9---9--9---9---9-
G-9---9---9---9---9--9---9---9--9---9---9---9---9--9---9---9-
B-9---9---9---9---9--9---9---9--9---9---9---9---9--9---9---9-
D-9---9---9---9---9--9---9---9--9---9---9---9---9--9---9---9-
A-13-13--13--13--13-13--13--13-13--13--13--13--13-13--13--13-
E-9---9---9---9---9--9---9---9--9---9---9---9---9--9---9---9-
(This part is gradually bended until the solo.)

Solo:

(More distortion, not heavy distortion though.)

e-----------------------------------------------------------
G-----------------------------------------------------------
B-13--------------------------------13----------------------
D------13-16------13------------------13--------16--13------
A-------------------------16—14-------------14-----------14-
E-----------------------------------------------------------
[ Tab from: http://www.guitartabs.cc/tabs/s/strokes/what_ever_happened_tab_ver_2.html ]
e-----------------------------------------------------------
G-----------------------------------------------------------
B-13--------------------------------13----------------------
D------13-16------13------------------13--------16--13------
A-------------------------16—14-------------14-----------14-
E-----------------------------------------------------------



E------------------------------------------------
G-12-----9----11—11/14-14-----11-----12—12—11--9-
B------8----8-----------------------9------9-----
D------------------------------------------------
A------------------------------------------------
e------------------------------------------------


E------------------------------------------------
G-12-----9----11—11/14-14-----11-----12—12—11--9-
B------8----8-----------------------9------9-----
D------------------------------------------------
A------------------------------------------------
e------------------------------------------------

Verse:

(Mild Distortion)

e---------------------
G---------------------
B---------------------
D--9---9—9--8-8-8-8-8-
A-11--11-11-9-9-9-9-9-
E---------------------

e---------------------
G---------------------
B--9---9—9--8-8-8-8-8-
D-11--11-11-9-9-9-9-9-
A---------------------
E---------------------

Back to intro, then verse, then


E-------------------------
G-------------------------
B-------------------------
D-13-13-13-13-13-13-13-13-    x4
A-11-11-11-11-11-11-11-11-
E-------------------------

e-------------------------
G-------------------------
B-------------------------
D-18-18-18-18-18-18-18-18- x2
A-16-16-16-16-16-16-16-16-
E-------------------------
Pm………………………………..

e-------------------------
G-------------------------
B------------------------- x2
D-18-18-18-18-18-18-18-18-
A-16-16-16-16-16-16-16-16-
E-------------------------

e---------------------
G---------------------
B---------------------
D--9---9—9--8-8-8-8-8-
A-11--11-11-9-9-9-9-9-
E---------------------

e---------------------
G---------------------
B--9---9—9--8-8-8-8-8-
D-11--11-11-9-9-9-9-9-
A---------------------
E---------------------

X4

Back to intro, then play Verse once more

Outro:

e-9---9---9---9---9--9---9---9--9---9---9---9---9--9---9---9-
G-9---9---9---9---9--9---9---9--9---9---9---9---9--9---9---9
B-9---9---9---9---9--9---9---9--9---9---9---9---9--9---9---9-
D-9---9---9---9---9--9---9---9--9---9---9---9---9--9---9---9-
A-13-13--13--13--13-13--13--13-13--13--13--13--13-13--13--13-
E-9---9---9---9---9--9---9---9--9---9---9---9---9--9---9---9-
(This part is gradually bended.)
Comments