Strokes - What Ever Happened Chords & Tabs

 

What Ever Happened Chords & Tabs

Strokes Chords & Tabs

Version: 1 Type: Tab 0 ratings
1 star 2 stars 3 stars 4 stars 5 stars
comments

What Ever Happened Tab

Song    what ever happened?
band    the strokes
album   room on fire
tab by  eaiddhi(eaiddhi@baganmail.net.mm)
tunning standard
 
 chorus
|---------------------------|
|-------9-----5-----9-------|
|-8-----9-----6-----9-------|
|-9-----9-x16-6-x16-9-x16---| x2
|-9-x16-7-----4-----7-------| 
|-7-------------------------|
[ Tab from: http://www.guitartabs.cc/tabs/s/strokes/what_ever_happened_tab.html ]
|---------|
|-8-------|
|-9-------|
|-9-x32---|
|-7-------|
|---------|
 
|-------------------------------|
|-9--------------9--------------|
|--8-11--8---------8----11-8----|
|----------11-9------9-------9--| x2
|-------------------------------|
|-------------------------------|
 
|-------------------------------|
|-12-9-11---/14-11-11/12--11-9--|
|---8-8--------8--8-------------|
|-------------------------------| x2
|-------------------------------|
|-------------------------------|
 
|------------------------------------------|
|-----------999-----------------999--------|
|-888-88888-999-88888-888-88888-999-88888--|
|-999-88888-999-99999-999-88888-999-99999--| x2
|-999-99999-----99999-999-99999-----99999--|
|------------------------------------------|
 
|------------------------------------------|
|-----------555-44444-----------555-44444--|
|-444-33333-666-44444-444-33333-666-44444--|
|-444-44444-666-44444-444-44444-666-44444--| x2
|-222-22222-444-------222-22222-444--------|
|------------------------------------------|
 
|------------------------------------------|
|-----------999-----------------999--------|
|-888-88888-999-88888-888-88888-999-88888--|
|-999-88888-999-99999-999-88888-999-99999--| x2
|-999-99999-----99999-999-99999-----99999--|
|------------------------------------------|

|-------------------|
|-------------------|
|-444-333333333333--|
|-444-444444444444--|
|-222-222222222222--|
|-------------------|
 
|---------------------|
|-------9-------------|
|-8-----9-x32---------|
|-9-x16--------6-x32--|
|---------------------|
|---------------------|

 play the chorus again.
Comments