Strokes - Under Cover Of Darkness Chords & Tabs

 

Under Cover Of Darkness Chords & Tabs

Strokes Chords & Tabs

Version: 1 Type: Bass Tab

Under Cover Of Darkness Bass Tab

My first tab
I'm not sure  about the accuracy of this
but i guess that is correct.

s = slide
x = mute

Intro

G -------------------------------|
D -------------------------------|
A -------------------------------|
E --7-7----7-7-----9-9----9-9----|

Verse

G -----------------------------------------------------|
D -----------------------------------------------------|
A ----------------------9-11-9-------------9-11-9------|
E --7--7---7-X7---7s-11--------11-7--7s-11--------11---|

G ------------------------------------------------------|
D ---------------------8-11-8-----------8-11-8----------|
A --6--6---6-X6---6s-9--------9-6--6s-9--------9--------|
E ------------------------------------------------------|

G ------------------------------------------------------|
D ------------------------------------------------------|
A ---------------------6-9-6---------6-9-6--------------|
E --4--4---4-X4---4s-7-------7--4s-7--------------------|

G ------------------------------------------------------|
D ------------------------------------------------------|
A --7--7---7-X7---7--7--7-X7----------------------------|
E ------------------------------------------------------|

Verse 2

G -----------------------------------------------------|
D -----------------------------------------------------|
A ----------------------9-11-9-------------9-11-9------|
E --7--7---7-X7---7s-11--------11-7--7s-11--------11---|

G ------------------------------------------------------|
D ---------------------8-11-8-----------8-11-8----------|
A --6--6---6-X6---6s-9--------9-6--6s-9--------9--------|
E ------------------------------------------------------|

  "We got the..."
G -----------------------------------------------------|
D -----------------------------------------------------|
A -----------------------------------------------------|
E -12-12-12-12-9-9-9-9-4-4-4-4-7-7-7-7-----------------|

G -----------------------------------------------------|
D -----------------------------------------------------|
A -----------------------------------------------------|
E -7--7--7-X7---7-7--7-X7------------------------------|

Chorus

  "Don't go that..."
G -----------------------------------------------------|
D -----------------------------------------------------|
A -----------------------------------------------------|
E -4-4-4-4-4-4-4-4-12-12-12-12-12-12-12-12-------------|

G -----------------------------------------------------|
D -----------------------------------------------------|
A -----------------------------------------------------|
E -7-7-7-7-7-7-7-7-2-2-2-2-2-2-2-2---------------------|

G -----------------------------------------------------|
D -----------------------------------------------------|
A -----------------------------------------------------|
E -4-4-4-4-4-4-4-4-12-12-12-12-12-12-12-12-------------|

G -----------------------------------------------------|
D -----------------------------------------------------|
A -----------------------------------------------------|
E -7-7-7-7-7-7-7-7-2-2-2-2-2-2-2-2---------------------|

  "And i'm tired..."
G -----------------------------------------------------|
D -----------------------------------------------------|
A -----------------------------------------------------|
E -4-4-4-4-4-4-9-11-12-12-12-12-12-12-11-9-------------|

G -----------------------------------------------------|
D -----------------------------------------------------|
A -----------------------------------------------------|
E -7-7-7-7-7-7-7-7-2-2-2-2-2-2-2-2---------------------|
[ Tab from: http://www.guitartabs.cc/tabs/s/strokes/under_cover_of_darkness_btab.html ]
G -----------------------------------------------------|
D -----------------------------------------------------|
A -----------------------------------------------------|
E -4-4-4-4-4-4-9-11-12-12-12-12-12-12-11-9-------------|

G -----------------------------------------------------|
D -----------------------------------------------------|
A -----------------------------------------------------|
E -7-7-7-7-7-7-7-7-2-2-2-2-2-2-2-2---------------------|

--> Repeat all <---

Then

Solo

G -----------------------------------------------------------------|
D -----------------------------------------------------------------|
A -----------------------------------------------------------------|
E -9-9-9-9-99--11-11-11-11-1111--9-9-9-9-99--7-7-7-7-77------------|

G -----------------------------------------------------------------|
D -----------------------------------------------------------------|
A ---------------9-10-10-10-10-10-10-10-10-10----------------------|
E -7-7-7-7-7-7-7---------------------------------------------------|

G -----------------------------------------------------------------|
D -----------------------------------------------------------------|
A -----------------------------------------------------------------|
E -7-7-7-7-7-7-7-7-4-4-4-4-4-4-4-4---------------------------------|

G -----------------------------------------------------------------|
D -----------------------------------------------------------------|
A -----------------------------------------------------------------|
E -9-9-9-9-99--11-11-11-11-1111--9-9-9-9-99--7-7-7-7-77-6-6-6-6-66-|

Chorus

  "Don't go..."
G -----------------------------------------------------|
D -----------------------------------------------------|
A -----------------------------------------------------|
E -4-4-4-4-4-4-4-4-12-12-12-12-12-12-12-12-------------|

G -----------------------------------------------------|
D -----------------------------------------------------|
A -----------------------------------------------------|
E -7-7-7-7-7-7-7-7-2-2-2-2-2-2-2-2---------------------|

G -----------------------------------------------------|
D -----------------------------------------------------|
A -----------------------------------------------------|
E -4-4-4-4-4-4-4-4-12-12-12-12-12-12-12-12-------------|

G -----------------------------------------------------|
D -----------------------------------------------------|
A -----------------------------------------------------|
E -7-7-7-7-7-7-7-7-2-2-2-2-2-2-2-2---------------------|

  "And i'm tired..."
G -----------------------------------------------------|
D -----------------------------------------------------|
A -----------------------------------------------------|
E -4-4-4-4-4-4-9-11-12-12-12-12-12-12-11-9-------------|

G -----------------------------------------------------|
D -----------------------------------------------------|
A -----------------------------------------------------|
E -7-7-7-7-7-7-7-7-2-2-2-2-2-2-2-2---------------------|

G -----------------------------------------------------|
D -----------------------------------------------------|
A -----------------------------------------------------|
E -4-4-4-4-4-4-9-11-12-12-12-12-12-12-11-9-------------|

G -----------------------------------------------------|
D -----------------------------------------------------|
A -----------------------------------------------------|
E -7-7-7-7-7-7-7-7-2-2-2-2-2-2-2-2---------------------|

End

G -----------------------------------------------------|
D -----------------------------------------------------|
A -----------------------------------------------------|
E -7-7-------------------------------------------------|