Strokes - Trying Your Luck Chords & Tabs

 

Trying Your Luck Chords & Tabs

Strokes Chords & Tabs

Version: 1 Type: Tab 0 ratings
1 star 2 stars 3 stars 4 stars 5 stars
comments

Trying Your Luck Tab

   
#----------------------------------PLEASE NOTE---------------------------------#
#This file is the author's own work and represents their interpretation of the #
#song. You may only use this file for private study, scholarship, or research. #
#------------------------------------------------------------------------------#
#


Artist:     The Strokes
Album:      Is This It?
Song:       Trying Your Luck
Tab Author: Willie D  



Chords:

Am  x02210
Dm  xx0231
F   x03211
G   320003
E   022100



Rhthym Guitar: 


fig. 1  (Plays during intro, verse and chorus)

Am - Dm - F - G - E

listen for strumming pattern. strum steadily during chorus.




fig. 2 (bridge "No harm, disarm...", play twice)

F - Dm - Am - E





Lead Guitar:

fig. A

(plays periodically. listen)


----------------------------------------
1-1-1-1-1-1-etc.-----0-0-0-0-0-0-0-etc.-
----------------------------------------
----------------------------------------
----------------------------------------
----------------------------------------



fig. B

(chorus x2, then back to fig. A)

[ Tab from: http://www.guitartabs.cc/tabs/s/strokes/trying_your_luck_tab.html ]
------------------------------------------------------------
------------------------------------------------------------
------------------------------------------------------------
------------------------------------------------------------
--------------7-8-8-7-8----3-5-5-3-5--5-3-------5-7-7-5-7---
-3-5-5-3-5--------------------------------5-3---------------




fig. C

(solo)

B= bend
h= hammer on


------------------------------------------------------------
----------------------------15-15b--------------15-15b------
-17-16-14--17-16-14---14-17--------17-14--14-17--------17-16
------------------------------------------------------------
------------------------------------------------------------
------------------------------------------------------------



-15b--------------------------------------------------------
-----18-17-15------------------------------15-15b-15b-15b---
--------------17-16-14h16-16-16--14h16-16-------------------
------------------------------------------------------------
------------------------------------------------------------
------------------------------------------------------------



-15b-15b-15b-15b---16b-16b-16b-16b--------------------------
------------------------------------------------------------
------------------------------------------------------------
------------------------------------------------------------
------------------------------------------------------------
------------------------------------------------------------



the bent notes are strummed more often than noted. 




my first tab. Whoo!
Comments