Strokes - Trying Your Luck Chords & Tabs

 

Trying Your Luck Chords & Tabs

Strokes Chords & Tabs

Version: 1 Type: Bass Tab 0 ratings
1 star 2 stars 3 stars 4 stars 5 stars
comments

Trying Your Luck Bass Tab

Song: Trying Your Luck
Band: The Strokes
Album: Is This It?
Tabbed By: Adam (awible@princeton.edu)

Standard Tuning

Verse Riff
G|----------------------------------------------------------|
D|---------------------00000000-----------------------------|
A|----------------------------------------------------------|
E|-55555555--11111111------------33333333--00000000---------|

Pre-Chorus Riff
G|--------------------------------------------2-222---------|
D|--3-333--0-000---------2-222--3-333--0-000---------2-222--|
A|----------------0-000-------------------------------------|
E|----------------------------------------------------------|
[ Tab from: http://www.guitartabs.cc/tabs/s/strokes/trying_your_luck_btab.html ]
Chorus
G|----------------------------------------------------------|
D|---------23323------------------02202---------------------| 
A|----------------35535-530---------------------------------|
E|--35535------------------3(313)---------------------------|

Note: only play notes in parentheses on the 3rd and 4th times through.

Outro
G|----------------------------------------------------------|
D|--2222357-------------------------------------------------|
A|----------------------------------------------------------|
E|----------------------------------------------------------|

Note: this riff replaces the last 5 notes of the final chorus.

Song Order:
------------------
1) Verse x4
2) Pre-Chorus x1
3) Verse x2
4) Chorus x4
5) Verse x4
6) Pre-Chorus x2
7) Verse x2
8) Chorus x4
9) Outro
------------------

11/05/01
Comments