Strokes - The Modern Age Complete Chords & Tabs

 

The Modern Age Complete Chords & Tabs

Strokes Chords & Tabs

Version: 1 Type: Tab 0 ratings
1 star 2 stars 3 stars 4 stars 5 stars
comments

The Modern Age Complete Tab

   
 ______________________________________
Song: The Modern Age                                     /
Band:  The Strokes                                           /_________________________________
Tabbed by:  Andrew Jordan, Any Questions email me @: Bam_Pontius@hotmail.com  /
______________________________________________________________________/


e|---------------------------------------------|
B|---------------------------------------------|
G|---------------------------------------------|
D|-----9-9-9-9-9-9--7-7-7-7-7-7----------------|   X2
A|-----5-5-5-5-5-5--5-5-5-5-5-5----------------|
E|---------------------------------------------|


e|---------------------------------------------|
B|---------------------------------------------|
G|---------------------------------------------|
D|---------------------------------------------|   X2
A|-----7-7-7-7-7-7--5-5-5-5-5-5----------------|
E|-----3-3-3-3-3-3--3-3-3-3-3-3----------------|


Solo

On the first bending keep the string bent and play the notes it says
e-------------------------------------------------------------
a-------------------------------------------------------------
d-------------------------------------------------------------
g--b12-12-12-12-12-10-h12-p10-10-10-10-b12-10-h12-p10-10-10-10
b-------------------------------------------------------------
e-------------------------------------------------------------
[ Tab from: http://www.guitartabs.cc/tabs/s/strokes/the_modern_age_complete_tab.html ]
Then keep bent as before stop bent when you go to 10
e--------------------------------------------------------------
a--------------------------------------------------------------
d---------All bent----------------------------12-12-12---------
g-12-12-12-12-12-12-12-12-12-10-h12-p10-10-10------------------
b--------------------------------------------------------------
e--------------------------------------------------------------

This bit is tremelo picking and keep it going
You will have to listen to the track because I’m not to sure about it.
e--------------------------------------------------------------
a--------------------------------------------------------------
d-0-0-0-0-0-0-0-0-0-9-9-0-0-6-6-6-0-0-3-3-3-0-0-0-3-3-3-0-0-0-6
g--------------------------------------------------------------
b--------------------------------------------------------------
e--------------------------------------------------------------

e--------------------------------------------------------------
a--------------------------------------------------------------
d-6-6-0-0-0-9-9-9----------------------------------------------
g----------------0-0-0-0-0-0-0-9-9-9-0-0-0-6-6-6-0-0-0-3-3-3-0-0
b--------------------------------------------------------------
e--------------------------------------------------------------


e--------------------------------------------------------------
a--------------------------------------------------------------
d--------------------------------------------------------------
g-0-3-3-3-0-0-0-6-6-6-0-0-0-9-9-9-0-0-0-6-6-6-0-0-0-3-3-3-0-0-0
b--------------------------------------------------------------
e--------------------------------------------------------------

After the last tremelo picking listen to the record and you will
know how to do the tremolo.

e--------------------------------------------------------------
a--------------------------------------------------------------
d--------------------------------------------------------------
g-3-3-3-0-0-0-6-6-6-0-0-0-9-9-9--------------------------------
b--------------------------------------------------------------
e--------------------------------------------------------------
Comments