Strokes - The End Has No End Chords & Tabs

 

The End Has No End Chords & Tabs

Strokes Chords & Tabs

Version: 4 Type: Tab 0 ratings
1 star 2 stars 3 stars 4 stars 5 stars
comments

The End Has No End Tab

   
Kay, this song is played a half step back.If ur guitar is not tuned a half step
back try to play the song a fret back to make it sound more like the song.
 
intro:
Bb5   F5    A5   E5
|---------------------|
|---------------------|
|-3333------2222------|
|-3333-3333-2222-2222-|
|-1111-3333-0000-2222-|
|------1111------0000-|

verse:  repeate twice |   repeate twice
|---------------------|---------------------|
|-8888-7777-8888-7777-|-7777-5555-7777-5555-|
|-7777-7777-7777-7777-|-6666-6666-6666-6666-|try to kinda mute or block these
|---------------------|---------------------|chords out.
|---------------------|---------------------|
|---------------------|---------------------|
|
|---------------------|---------------------|
|---------------------|---------------------|
|-12--11--12--11--11--|-11--9--11--9--9-----|
|---------------------|---------------------|
|---------------------|---------------------|
|---------------------|---------------------|

chorus:

|-------------------------|-------------------------|
|-------------15----------|-------------15----------|this part gets pretty 
|-12-12-14----------12-14-|-12-11-14-11----11-11-14-|tricky.
|----------12----12-------|-------------------------|
|-------------------------|-------------------------|
|-------------------------|-------------------------|

|-------------------------|-------------------------|
|-------------------------|-------------------------|
|-7777-7777---------------|-------------------------|
|-7777-7777---------------|-9999-9999---------------|
|-5555-5555---------------|-9999-9999---------------|
|-------------------------|-7777-7777---------------|

|-------------------------|-------------------------|
|-------------14----------|-------------14----------|
|-11-11-14---------11-14--|----12-14----------14-12-|
|-------------------------|-------------------------|
|----------12---12--------|-12-------12----12-------|
|-------------------------|-------------------------|

|-------------------------|-------------------------|
|-------------------------|-------------------------|
|-------------------------|-------------------------|
|-4444-4444---------------|-7777-7777---------------|
|-4444-4444---------------|-7777-7777---------------|
|-2222-2222---------------|-5555-5555---------------|

presolo:
[ Tab from: http://www.guitartabs.cc/tabs/s/strokes/the_end_has_no_end_tab_ver_4.html ]
|---------------------------------------------------|
|-9999------1111-999999------9999------1111---------|
|------1010-------------1010------1111--------------|the 1111s are elevens
|---------------------------------------------------|
|---------------------------------------------------|
|---------------------------------------------------|

|---------------------------------------------------|
|---------------------------------------------------|
|--------6666----------8888-------------------------|repeate this rythm for 
|-4444---6666---6666---8888-------------------------|the whole section of the
|-4444---4444---6666---6666-------------------------|solo.
|-2222----------4444--------------------------------|

|---------------------------------------------------|
|-11-99999------9999-------1111-999999--------------|
|----------1010------1010--------------1010---------|
|---------------------------------------------------|
|---------------------------------------------------|
|---------------------------------------------------|

|---------------------------------------------------|
|-9999------1111-1111111111-99999999999-------------|
|------1111-----------------------------------------|
|---------------------------------------------------|
|---------------------------------------------------|
|---------------------------------------------------|

solo:

|--------------------------------------------------|
|-----------12-11-9----11--6-9--6-9--6-7-----------|
|-11\-11-10---------11-----6-10-6-10-6-------------|  \=bend up
|--------------------------------------------------|
|--------------------------------------------------|
|--------------------------------------------------|

|-------------0------------------------------------|
|-6-9--6-9--6--------------------------------------|just gradually bend the 
|-6-10-6-10-6----11-11-11-11-11-11-11-11-11-11-11--|elevens up.
|--------------------------------------------------|
|--------------------------------------------------|
|--------------------------------------------------|

|-----------11-11-11-11-11-11-11-11-11-11-11-11-11-|
|-99999999-----------------------------------------|just keep on bending 
|--------------------------------------------------|these notes up higher
|--------------------------------------------------|and higher
|--------------------------------------------------|
|--------------------------------------------------|

rythm to solo:

|---------------------------------------------------------------------|
|---------------------------------------------------------------------|
|-66666666------------------------------------------------------------|
|-66666666------/----/----/----66666666-------------------------------|
|-44444444---------------------66666666------/----/----/--------------|
|------------------------------44444444-------------------------------|


well ill see u catz on the flipflop later
Ull be able to take it from there
later days
enjoy
Comments