Strokes - Take It Or Leave It Chords & Tabs

 

Take It Or Leave It Chords & Tabs

Strokes Chords & Tabs

Version: 2 Type: Tab 0 ratings
1 star 2 stars 3 stars 4 stars 5 stars
comments

Take It Or Leave It Tab

-The Strokes
-Take it or leave it(solo)
                                      Tabbed by A. Mazzei

Key
*=Bend
r=Reverse Bend
^=Bend string up to

Lead Guitar(Albert)

e|--8-----|
B|-*11^13-|
G|--------|
D|--------|
A|--------|
E|--------|


e|-11--8--------------|----------------|
B|--------8--*--------|-11--11--11--11-|
G|-----------11^13r11-|----------------|
D|--------------------|----------------|
A|--------------------|----------------|
E|--------------------|----------------|


e|-*------8----*------8----*------8----*------8----*------8-|-11--8----|
B|-11^13-------11^13-------11^13-------11^13-------11^13----|--------8-|
G|----------------------------------------------------------|----------|
D|----------------------------------------------------------|----------|
A|----------------------------------------------------------|----------|
E|----------------------------------------------------------|----------|
[ Tab from: http://www.guitartabs.cc/tabs/s/strokes/take_it_or_leave_it_tab_ver_2.html ]
                                                                  You hold these notes
                                                                          \/         \/
e|-*------8----*------8----*------8----*------8----*------8-|-11--8----|-----|---------|------|
B|-11^13-------11^13-------11^13-------11^13-------11^13----|--------8-|--8--|-11----8-|--11--|
G|----------------------------------------------------------|----------|-----|---------|------|
D|----------------------------------------------------------|----------|-----|---------|------|
A|----------------------------------------------------------|----------|-----|---------|------|
E|----------------------------------------------------------|----------|-----|---------|------|


e|-8-8-8-8----11-11----8-8-8-8----11-11----8-8-8-8----11-11----8-8-8-8----11-11--|
B|-8-8-8-8----9--9-----8-8-8-8----9--9-----8-8-8-8----9--9-----8-8-8-8----9--9---|
G|-------------------------------------------------------------------------------|
D|-------------------------------------------------------------------------------|
A|-------------------------------------------------------------------------------|
E|-------------------------------------------------------------------------------|



e|-8-8-8-8----11-11----8-8-8-8----11-11----8-8-8-8----11-11----8-8-8-8----11-11--|
B|-8-8-8-8----9--9-----8-8-8-8----9--9-----8-8-8-8----9--9-----8-8-8-8----9--9---|
G|-------------------------------------------------------------------------------|
D|-------------------------------------------------------------------------------|
A|-------------------------------------------------------------------------------|
E|-------------------------------------------------------------------------------|


thestrokes1@hotmail.com
Comments