Strokes - Someday Chords & Tabs

 

Someday Chords & Tabs

Strokes Chords & Tabs

Version: 3 Type: Bass Tab 0 ratings
1 star 2 stars 3 stars 4 stars 5 stars
comments

Someday Bass Tab

G:------------------
D:----------0-0-----
A:0-0--2-2-------0-0  X6
E:------------------

G:--------------------------------------------------
D:----------0-2-0----4-2-0-0-0-0-0-0-0-0------------
A:----0-0-0------------------------------0-0-0-0-0-0  X4
E:0-2-------------2---------------------------------


G:-------------------------------------------------------------------
D:-------------------------------------------------------------------
A:0-0----------------------------------------------------------------
E:----0-0-0-0-0-0-0-0-0-0-0-0-0-0-0-0-0-0-0-0-0-0-0-0-0-0-0-0-0-0-0-0

[ Tab from: http://www.guitartabs.cc/tabs/s/strokes/someday_btab_ver_3.html ]
G:------------------
D:----------0-0-----
A:0-0--2-2-------0-0 X4
E:------------------

G:--------------------------------------------------
D:----------0-2-0----4-2-0-0-0-0-0-0-0-0------------
A:----0-0-0------------------------------0-0-0-0-0-0  X4
E:0-2-------------2---------------------------------


G:---------------------------------------------------------------------
D:---------------------------------------------------------------------
A:0-0-----------------------------------------------------------------0
E:----0-0-0-0-0-0-0-0-0-0-0-0-0-0-0-0-0-0-0-0-0-0-0-0-0-0-0-0-0-0-0-0--
Comments