Strokes - Someday Chords & Tabs

 

Someday Chords & Tabs

Strokes Chords & Tabs

Version: 1 Type: Bass Tab 0 ratings
1 star 2 stars 3 stars 4 stars 5 stars
comments

Someday Bass Tab

#----------------------------------PLEASE NOTE---------------------------------#
#This file is the author's own work and represents their interpretation of the #
#song. You may only use this file for private study, scholarship, or research. #
#------------------------------------------------------------------------------#


BASS_TAB!!!!!

ARTIST:     The Strokes
ALBUM:      Is This It?
SONG:       Someday
TABBED BY:  Jay V (bulletproof0418@yahoo.com)

--------------------------------------------------------------------------------

Willie D included the bass riff in his tab for "Someday." Thanks, Willie.  And I
will put up the right tab for the bassline of this song.  It's sickeningly easy,
and posted exclusively at guitartabs.cc !!!!!!

Willie D noted that ...

>> The main bass riff goes: 
>> 
>> ---------------------------
>> ---------------------------
>> --0-0---2-2---5-5--0-0-----
>> ---------------------------
[ Tab from: http://www.guitartabs.cc/tabs/s/strokes/someday_btab.html ]
But it's played on two strings, not one. I think you have to be a bass player to
notice the difference in intonation . . . so try the following . . .

Intro/verse:

------------------------------------ 
------------------------------------ 
------------------5-5--------------- 
--5-5-----7-7-------------5-5------- 

repeated over and over ad infinitum ... or at least until the chorus . . .

Chorus:
-------------------------------------------------------------------
--------------------------4-4-2-2----------------------------------
----------------------------------5-5-5-5-5-5-5-5------------------
--5-5-5-5-4-4-4-4-2-2-2-2-------------------------5-5-5-5-5-5-5-5-- 

repeated until . . . . . .

---------------------------
---------------------------
--7-7-7-7-7-7-7-7-7-7-7-7--
---------------------------

. . . . until your fingers fall off.

repeat the verse riff, and then play the chorus again. just remember that this
time around, we end the song with a phat . . .

---
---
---
-5-
Comments