Strokes - Soma Chords & Tabs

 

Soma Chords & Tabs

Strokes Chords & Tabs

Version: 5 Type: Tab

Soma Tab

   
----------------------------------------------------------------------------
			            SOMA
----------------------------------------------------------------------------
                            *****The Strokes*****
Tuning:Standard

Main Chords:F,G,F#,E

  G
e|3------------3------------0---0--0-3--10---0---0--0-3--10|
B|0------------0-------------------------------------------|
G|0------------0-------------------------------------------|
D|0------------0-------------------------------------------|
A|2------------2-------------------------------------------|
E|3------------3-------------------------------------------|

  G                               F
e|0---0--0-3--10--0---0--0-3--10-|-----------1--8------------1--8|\
B|-------------------------------|--3---3--3--------3---3--3-----| \
G|-------------------------------|-------------------------------|  >
D|-------------------------------|-------------------------------|  > x2
A|-------------------------------|-------------------------------| /
E|-------------------------------|-------------------------------|/
 
  G                                     F
e|0-0-0-0-3-3-10-10--0-0-0-0-3-3-10-10-|--------1-1-8-8---------1-1-8-8|\
B|-------------------------------------|3-3-3-3---------3-3-3-3--------| \
G|-------------------------------------|-------------------------------|  >
D|-------------------------------------|-------------------------------|  >x2
A|-------------------------------------|-------------------------------| /
E|-------------------------------------|-------------------------------|/

 G +                      F#           G               F#
e|----------------------------------------------------------------|
B|15--15--15--15--15--15--14-14-14-14--15--15--15--15--14-14-14-14|
G|----------------------------------------------------------------|
D|----------------------------------------------------------------|
A|----------------------------------------------------------------|
E|----------------------------------------------------------------|

  F                       E            F                       E
e|------------------------------------------------------------------------|
B|15--15--15--15--15--15--13-13-13-13--15--15--15--15--15--15--13-13-13-13|
G|------------------------------------------------------------------------|
D|------------------------------------------------------------------------|
A|------------------------------------------------------------------------|
E|------------------------------------------------------------------------|
Repeat all the way to where the plus sign is after you finish this.

  G
e|3------------3------------3------------3|
B|0------------0------------0------------0|
G|0------------0------------0------------0|
D|0------------0------------0------------0|
A|2------------2------------2------------2|
E|3------------3------------3------------3|

  G
e|0---0--0-3--10---0---0--0-3--10|\
B|-------------------------------| \
G|-------------------------------|  >
D|-------------------------------|  > x2
A|-------------------------------| /
E|-------------------------------|/

  G                               F
e|0---0--0-3--10--0---0--0-3--10-|-----------1--8------------1--8|\
B|-------------------------------|--3---3--3--------3---3--3-----| \
G|-------------------------------|-------------------------------|  >
D|-------------------------------|-------------------------------|  > x2
A|-------------------------------|-------------------------------| /
E|-------------------------------|-------------------------------|/
 
  G                                     F
e|0-0-0-0-3-3-10-10--0-0-0-0-3-3-10-10-|--------1-1-8-8---------1-1-8-8|\
B|-------------------------------------|3-3-3-3---------3-3-3-3--------| \
G|-------------------------------------|-------------------------------|  >
D|-------------------------------------|-------------------------------|  >x2
A|-------------------------------------|-------------------------------| /
E|-------------------------------------|-------------------------------|/
[ Tab from: http://www.guitartabs.cc/tabs/s/strokes/soma_tab_ver_5.html ]
 G                        F#           G               F#
e|----------------------------------------------------------------|
B|15--15--15--15--15--15--14-14-14-14--15--15--15--15--14-14-14-14|
G|----------------------------------------------------------------|
D|----------------------------------------------------------------|
A|----------------------------------------------------------------|
E|----------------------------------------------------------------|

  F                       E            F                       E
e|------------------------------------------------------------------------|
B|15--15--15--15--15--15--13-13-13-13--15--15--15--15--15--15--13-13-13-13|
G|------------------------------------------------------------------------|
D|------------------------------------------------------------------------|
A|------------------------------------------------------------------------|
E|------------------------------------------------------------------------|

 G                        F#           G               F#
e|----------------------------------------------------------------|
B|15--15--15--15--15--15--14-14-14-14--15--15--15--15--14-14-14-14|
G|----------------------------------------------------------------|
D|----------------------------------------------------------------|
A|----------------------------------------------------------------|
E|----------------------------------------------------------------|

  F                       E            F                       E
e|------------------------------------------------------------------------|
B|15--15--15--15--15--15--13-13-13-13--15--15--15--15--15--15--13-13-13-13|
G|------------------------------------------------------------------------|
D|------------------------------------------------------------------------|
A|------------------------------------------------------------------------|
E|------------------------------------------------------------------------|

 G                        F#           G               F#
e|----------------------------------------------------------------|
B|15--15--15--15--15--15--14-14-14-14--15--15--15--15--14-14-14-14|
G|----------------------------------------------------------------|
D|----------------------------------------------------------------|
A|----------------------------------------------------------------|
E|----------------------------------------------------------------|

  F                       E            F                       E
e|------------------------------------------------------------------------|
B|15--15--15--15--15--15--13-13-13-13--15--15--15--15--15--15--13-13-13-13|
G|------------------------------------------------------------------------|
D|------------------------------------------------------------------------|
A|------------------------------------------------------------------------|
E|------------------------------------------------------------------------|

 G                        F#           G               F#
e|----------------------------------------------------------------|
B|15--15--15--15--15--15--14-14-14-14--15--15--15--15--14-14-14-14|
G|----------------------------------------------------------------|
D|----------------------------------------------------------------|
A|----------------------------------------------------------------|
E|----------------------------------------------------------------|

  F                       E            F                       E
e|------------------------------------------------------------------------|
B|15--15--15--15--15--15--13-13-13-13--15--15--15--15--15--15--13-13-13-13|
G|------------------------------------------------------------------------|
D|------------------------------------------------------------------------|
A|------------------------------------------------------------------------|
E|------------------------------------------------------------------------|

  G
e|3------------3------------3|
B|0------------0------------0|
G|0------------0------------0|
D|0------------0------------0|
A|2------------2------------2|
E|3------------3------------3|

****************
| /  slide up  *
| \  slide down*
| h  hammer-on *
| p  pull-off  *
| ~  vibrato   *
| +  harmonic  *
| x  Mute note *
****************
=============================================================================