Strokes - Soma Chords & Tabs

 

Soma Chords & Tabs

Strokes Chords & Tabs

Version: 2 Type: Tab 0 ratings
1 star 2 stars 3 stars 4 stars 5 stars
comments

Soma Tab

   
This whole song is just the first guitar so give me some time to tab the second
guitar... but the songs sounds pretty right...have fun :)

Intro
E--7-----7-------------------10------------------10---------------------|
B--7-----7-----5-5----8-8----------5-5----8-8---------------------------|
G--8-----8--------------------------------------------------------------|
D--9-----9--------------------------------------------------------------|
A--9-----9--------------------------------------------------------------|
E--7-----7--------------------------------------------------------------|

Verse 1
E----------------10------------------10------------------8------------------8----|
B--5-5----8-8----------5-5----8-8----------3-3----6-6---------3-3----6-6---------|
G--------------------------------------------------------------------------------|
D--------------------------------------------------------------------------------|
A--------------------------------------------------------------------------------|
E--------------------------------------------------------------------------------|

Play until these verse end:
Soma is what they would take when hard times opened their eyes
Saw pain in a new way
High stakes for a few names
Racing with the sunbeams
Loosing against their dreams
In our eyes

Chorus
E--10--10--10--10--10--10--9--9--9--9---|
B--10--10--10--10--10--10--9--9--9--9---|
G--11--11--11--11--11--11--10-10-10-10--| Repeat 2x
D--12--12--12--12--12--12--11-11-11-11--|
A--12--12--12--12--12--12--11-11-11-11--|
E--10--10--10--10--10--10--9--9--9--9---|

E--10--10--10--10--10--10--8--9--9--9---|
B--10--10--10--10--10--10--8--9--9--9---|
G--11--11--11--11--11--11--9--9--9--9---| Repeat 2x
D--12--12--12--12--12--12--10-10-10-10--|
A--12--12--12--12--12--12--10-10-10-10--|
E--10--10--10--10--10--10--8--8--8--8---|

Play Until Chorus Ends:
I am
Stop
And go
In your eyes, 
Said I am
Stop
And go 
In your eyes
[ Tab from: http://www.guitartabs.cc/tabs/s/strokes/soma_tab_ver_2.html ]
Riff
E--7-----7-----7-----7-----|
B--7-----7-----7-----7-----|
G--8-----8-----8-----8-----|
D--9-----9-----9-----9-----|
A--9-----9-----9-----9-----|
E--7-----7-----7-----7-----|

Short Solo
E----------------10------|
B--5-5----8-8------------|
G------------------------| Repeat This 4x
D------------------------|
A------------------------|
E------------------------|

Verse 2
E----------------10------------------10------------------8------------------8----|
B--5-5----8-8----------5-5----8-8----------3-3----6-6---------3-3----6-6---------|
G--------------------------------------------------------------------------------|
D--------------------------------------------------------------------------------|
A--------------------------------------------------------------------------------|
E--------------------------------------------------------------------------------|

Repeat until verse ends:
When I saw her for the first time
Lips moved as her eyes closed
Heard something in his voice
"And I'll be there" he says
And he walks out
Somehow he was trying too hard
To be like them

Chorus
E--10--10--10--10--10--10--9--9--9--9---|
B--10--10--10--10--10--10--9--9--9--9---|
G--11--11--11--11--11--11--10-10-10-10--| Repeat 2x
D--12--12--12--12--12--12--11-11-11-11--|
A--12--12--12--12--12--12--11-11-11-11--|
E--10--10--10--10--10--10--9--9--9--9---|

E--10--10--10--10--10--10--8--9--9--9---|
B--10--10--10--10--10--10--8--9--9--9---|
G--11--11--11--11--11--11--9--9--9--9---| Repeat 2x
D--12--12--12--12--12--12--10-10-10-10--|
A--12--12--12--12--12--12--10-10-10-10--|
E--10--10--10--10--10--10--8--8--8--8---|

Repeat until chorus ends:
I am
Stop
And go
In your eyes 
And I am
Stop
Oh darling let me go
Try it once and they liked it
(They) Try to hide it
Said I've been doing this twenty five years
Well I'm not listening no more
And his friends they keep asking for more
Oh yeah

Ending
E--7-----7-----7-----|
B--7-----7-----7-----|
G--8-----8-----8-----|
D--9-----9-----9-----|
A--9-----9-----9-----|
E--7-----7-----7-----|

Dont mute the last not because thats not the way it goes...
Comments