Strokes - Reptilia Chords & Tabs

 

Reptilia Chords & Tabs

Strokes Chords & Tabs

Version: 6 Type: Tab 0 ratings
1 star 2 stars 3 stars 4 stars 5 stars
comments

Reptilia Tab

   
Reptilia- The Strokes
Tabbed by Ray

Intro: (bass tabbed for guitar)
e|---------------------|
B|---------------------|
G|---------------------|
D|-9-9-9-9-9-9-9-9-9-9-|
A|-9-9-9-9-9-9-9-9-9-9-|
E|-7-7-7-7-7-7-7-7-7-7-| play a lot of times

Intro Guitar 1:
e|-10-10-10-10-10---10-10-10-10-10------------------------------------|
B|-x--x--x--x--x----x--x--x--x--x-------------------------------------|
G|-7--7--7--x--x----7--7--7--x--x-----13-13-13-16-19---13-13-13-16-19-|
D|----------9--7-------------9--7-----x--x--x--x--x----x--x--x--x--x--|
A|------------------------------------10-10-10-14-16---10-10-10-14-16-|
E|--------------------------------------------------------------------|
Repeat all through verse

Intro Guitar 2:
e|-------------------------------------------------------------------|
B|-------------------------------------------------------------------|
G|-7--7--7----------7--7--7-----------------------7----------------7-|
D|----------9--7-------------9--7-----6--6--6--9-------6--6--6--9----|
A|-------------------------------------------------------------------|
E|-------------------------------------------------------------------|
Come in a few times after Guitar 1 and play through verse

Chorus Guitar 2:
e|-10-10-10-------------------------------------------------------10-10-10-|
B|-12-12-12-10-10-10-12-12-12-14-14-14-12-12-12-14-14-14-10-10-10-12-12-12-|
G|----------11-11-11-12-12-12-14-14-14-12-12-12-14-14-14-11-11-11----------|
D|-------------------------------------------------------------------------|
A|-------------------------------------------------------------------------|
E|-------------------------------------------------------------------------|
i know its not what hes actually playing but its a lot easier

Real Chorus guitar 2:
e|-------------------------------------------------------------------------|
B|-15-15-15-10-10-10-12-12-12-14-14-14-12-12-12-14-14-14-10-10-10-15-15-15-|
G|-x--x--x--x--x--x--x--x--x--x--x--x--x--x--x--x--x--x--x--x--x--x--x--x--|
D|-x--x--x--x--x--x--x--x--x--x--x--x--x--x--x--x--x--x--x--x--x--x--x--x--|
A|-14-14-14-9--9--9--10-10-10-12-12-12-10-10-10-12-12-12-9--9--9--14-14-14-|
E|-------------------------------------------------------------------------|

Chorus guitar 1: (its a lot easier divided into these sections
e|-10-----|-10/9-----|-9-------|-10/9--12-9|--------|-10/9--12-9|
B|---12---|-----10---|--12--12-|-----10----|-12--12-|-----10----|
G|-----11-|-------11-|----12---|-----------|---12---|-----------|
D|--------|----------|---------|-----------|--------|-----------|
A|--------|----------|---------|-----------|--------|-----------|
E|--------|----------|---------|-----------|--------|-----------|
[ Tab from: http://www.guitartabs.cc/tabs/s/strokes/reptilia_tab_ver_6.html ]
e|-10/9----------9-|
B|-----10--12--12--|
G|-------11--11----|
D|-----------------|
A|-----------------|
E|-----------------| repeat a lot


Solo:
e|----------------------------------------------------|
B|-9-7----7--------------7---9-7----7--------------7--|
G|-----9---9-7--9-7-6-7-9--------9---9-7--9-7-6-7-9---|
D|----------------------------------------------------|
A|----------------------------------------------------|
E|----------------------------------------------------|

e|------------------------------------------|
B|-9-7----7--------------7---9-7----7-------|
G|-----9---9-7--9-7-6-7-9--------9---9-7----|
D|---------------------------------------9--|
A|------------------------------------------|
E|------------------------------------------|

e|-------------------------7/10-10-----------------|
B|-12-12--10/9---------------------10/9------------|
G|-------------11-9-11------------------11-9-11----|
D|---------------------12-----------------------12-|
A|-------------------------------------------------|
E|-------------------------------------------------|

e|-12/14-14-10-9--------------12/14-14-10-9-10-----|
B|---------------12-10-12----------------------10~-|
G|------------------------11-----------------------|
D|-------------------------------------------------|
A|-------------------------------------------------|
E|-------------------------------------------------|

e|------------------------------------------|
B|-9-7----7--------------7---9-7----7-------|
G|-----9---9-7--9-7-6-7-9--------9---9-7----|
D|---------------------------------------9--|
A|------------------------------------------|
E|------------------------------------------|

Bass part for guitar verse 2:
e|---------------------------------------------------------------------|
B|---------------------------------------------------------------------|
G|---------------------------------------------------------------------|
D|-----9-------9-------11------11--------9-------9-------11------11----|
A|-----9-------9-------11------11--------9-------9-------11------11----|
E|-7-7-7-7-7-7-7-7--9-9-9-9-9-9-9-9--7-7-7-7-7-7-7-7--9-9-9-9-9-9-9-9--|

Repeat verse w/ guitars 1 and 2
Repeat chorua w/ guitars 1 and 2

After second chorus guitar 1 bends and holds this note until end:
e|-----|
B|-12~-|
G|-----|
D|-----|
A|-----|
E|-----|

Bass for guitar outro:
e|---------------------------|
B|---------------------------|
G|---------------------------|
D|-9-9-9-9-9-9-9-9-9-9-9-9-9-|
A|-9-9-9-9-9-9-9-9-9-9-9-9-9-|
E|-7-7-7-7-7-7-7-7-7-7-7-7-7-|

Guitar 1 end on:
e|----|
B|-12-|
G|-11-|
D|----|
A|----|
E|----|

Guitar 2 end on:
e|---|
B|---|
G|---|
D|-9-|
A|-9-|
E|-7-|

Enjoy
Comments