Strokes - Reptilia Chords & Tabs

 

Reptilia Chords & Tabs

Strokes Chords & Tabs

Version: 3 Type: Tab 2 ratings
1 star 2 stars 3 stars 4 stars 5 stars
comments

Reptilia Tab

#----------------------------------PLEASE NOTE---------------------------------#
#This file is the author's own work and represents their interpretation of the #
#song. You may only use this file for private study, scholarship, or research. #
#------------------------------------------------------------------------------#

This is called Reptilia (from The Strokes)

Bass in B

e-------------------------------------------------------------------
B-------------------------------------------------------------------
G--7-7-7-4---7-7--7-4-----------4-7--------4-7----------------------
D----------7----------7--6-6--6-----6-6--6--------------------------
A-------------------------------------------------------------------
E-------------------------------------------------------------------

Repeat while the intro and the verses... then the pre-chorus:
[ Tab from: http://www.guitartabs.cc/tabs/s/strokes/reptilia_tab_ver_3.html ]
e---10-10--10/5-5--5/7-7--7/9-9--9/7-7--7/9-9--9/5-5--5/10----------
B---x--x---x--x-x--x-x-x--x-x-x--x-x-x--x-x-x--x-x-x--x-x-----------
G---x--x---x--x-x--x-x-x--x-x-x--x-x-x--x-x-x--x-x-x--x-x-----------
D---9--9---9-/4-4--4/5-5--5/7-7--7/5-5--5/7-7--7/4-4--4/9-----------
A-------------------------------------------------------------------
E----------------------------------------------------------------(x2)

And in the chorus

e-10-10-10-10/5-5-5-5/7-7-7-7/9--9--12--9/7-7-7-7/9-9-12-9/5-5-5-5/10-10-10---
B-10-10-10-10-7-7-7-7-8-8-8-8-10-10-10-10/8-8-8-8/*-*-10-*/7-7-7-7/12-12-12---
G-----------------------------------------------------------------------------
D-----------------------------------------------------------------------------
A-----------------------------------------------------------------------------
E-----------------------------------------------------------------------------

e-------------------------------------------------------------------
B--9-7-5-7-5-3-5-3-2-3-2----0-9-7-5-7-5-3-5-3-2-3-2-0---------------
G-------------------------------------------------------------------
D-------------------------------------------------------------------
A-------------------------------------------------------------------
E-------------------------------------------------------------------

I'm trayning the central riff for submit... so you can ask for it at 
godo_monge@hotmail.com... now you can play the song almost the same as
in the CD...

Godo Monge - FIND
México City
Comments