Strokes - Reptilia Chords & Tabs

 

Reptilia Chords & Tabs

Strokes Chords & Tabs

Version: 2 Type: Tab 0 ratings
1 star 2 stars 3 stars 4 stars 5 stars
comments

Reptilia Tab

The Strokes- Reptilia (Room on Fire)
Standard Tuning

E---7-(Repeat a bunch of times)

Verse:
E---------------------------------------------
B---------------------------------------------
G---77-7-------77-7---------------7----------7
D---------9-7--------9-7---66-6-9----66-6-9---
A---------------------------------------------
E---------------------------------------------
[ Tab from: http://www.guitartabs.cc/tabs/s/strokes/reptilia_tab_ver_2.html ]
Chorus:
E------------------------------------------------------------------
B------------------------------------------------------------------
G--77-7----------------------------------------------------------77
D--99-9---77-7---9-9---9---11/11--11---9-9---9--11/11--11--77-7--99
A---------99-9--10/10-10---12/12--12--10/10-10--12/12--12--99-9----
E------------------------------------------------------------------


Solo and intro into 2nd verse:
A--9-(Repeat)--7-(Repeat)   Then go back to verse riff
E--7-----------0--------

Fade out with original
E--7-(Repeat)

Enjoy!- melissa
Comments