Strokes - Reptilia Chords & Tabs

 

Reptilia Chords & Tabs

Strokes Chords & Tabs

Version: 13 Type: Tab 0 ratings
1 star 2 stars 3 stars 4 stars 5 stars
comments

Reptilia Tab

Well.... there it is

(guitar 1)
|-----------------------------------------------------------------|
|-----------------------------------------------------------------|
|-7-7-7-7-7-7-7-7-7-7-7-7-7-7-7-7-9-9-9-9-9-9-9-9-9-9-9-9-9-9-9-9-|
|-9-9-9-9-9-9-9-9-9-9-9-9-9-9-9-9-9-9-9-9-9-9-9-9-9-9-9-9-9-9-9-9-|
|-9-9-9-9-9-9-9-9-9-9-9-9-9-9-9-9-7-7-7-7-7-7-7-7-7-7-7-7-7-7-7-7-|
|-----------------------------------------------------------------|x4

(guitar 2)
E|---------------------------------------------------------------|
B|---------------------------------------------------------------|
G|-7-7--7------7-7--7--------------------------------------------|
D|---------9-7----------9-7--------------------------------------|
A|-----------------------------11-11--11-14-17---11-11--11-14-17-|
E|-0-0--0--0-0-0-0--0---0-0-----0--0---0--0--0----0--0---0--0--0-|x4

(alone)
E|---------------------------------------------------------------|
B|---------------------------------------------------------------|
G|-7-7--7------7-7--7--------------------------------------------|
D|---------9-7----------9-7--------------------------------------|
A|-----------------------------11-11--11-14-17---11-11--11-14-17-|
E|---------------------------------------------------------------|x4

(guitar 1)
|-----------------------------------------------------------------|
|-----------------------------------------------------------------|
|-7-7-7-7-7-7-7-7-7-7-7-7-7-7-7-7-9-9-9-9-9-9-9-9-9-9-9-9-9-9-9-9-|
|-9-9-9-9-9-9-9-9-9-9-9-9-9-9-9-9-9-9-9-9-9-9-9-9-9-9-9-9-9-9-9-9-|
|-9-9-9-9-9-9-9-9-9-9-9-9-9-9-9-9-7-7-7-7-7-7-7-7-7-7-7-7-7-7-7-7-|
|-----------------------------------------------------------------|x2

(guitar 2)
E|---------------------------------------------------------------|
B|---------------------------------------------------------------|
G|-7-7--7------7-7--7--------------------------------------------|
D|---------9-7----------9-7--------------------------------------|
A|-----------------------------11-11--11-14-17---11-11--11-14-17-|
E|-0-0--0--0-0-0-0--0---0-0-----0--0---0--0--0----0--0---0--0--0-|x2

(alone)
(guitar 1)
E|-----------------------------------------------------------------------------------------|
B|-15-15--15-/-10-10--10/12-12--12-/14-14--14--/12-12--12/14-14--14-/10-10--10-/15-15--15--| 
G|--x--x---x-/-x--x---x-/-x--x---x-/-x--x---x--/-x--x---x/-x--x---x-/-x--x---x-/-x--x---x--|  
D|--x--x---x-/-x--x---x-/-x--x---x-/-x--x---x--/-x--x---x/-x--x---x-/-x--x---x-/-x--x---x--|  
A|-14-14--14-/-9--9---9-/10-10--10-/12-12--12--/10-10--10/12-12--12-/-9--9---9-/14-14--14--| 
E|-----------------------------------------------------------------------------------------|x2

(after finish above these play together)
(Guitar 1)
E|-----------------------------------------------------------------------------------------|
B|-15-15--15-/-10-10--10/12-12--12-/14-14--14--/12-12--12/14-14--14-/10-10--10-/15-15--15--| 
G|--x--x---x-/-x--x---x-/-x--x---x-/-x--x---x--/-x--x---x/-x--x---x-/-x--x---x-/-x--x---x--|  
D|--x--x---x-/-x--x---x-/-x--x---x-/-x--x---x--/-x--x---x/-x--x---x-/-x--x---x-/-x--x---x--|  
A|-14-14--14-/-9--9---9-/10-10--10-/12-12--12--/10-10--10/12-12--12-/-9--9---9-/14-14--14--| 
E|-----------------------------------------------------------------------------------------|x4

(guitar 2)
E|-7------10-9-------9-7---7--10-9----12-9-7---7--10-9----12-9-------9-10-7---9-|
B|---7-10------7-10------8---------10--------8---------10------7-8-7--------7---| 
G|------------------------------------------------------------------------------|  
D|------------------------------------------------------------------------------|  
A|------------------------------------------------------------------------------| 
E|------------------------------------------------------------------------------|x4
[ Tab from: http://www.guitartabs.cc/tabs/s/strokes/reptilia_tab_ver_13.html ]
Solo (guitar 1)
E|--------------------------------------------------------------|
B|-9p7----7----------------------9p7---7------------------------|
G|------9---9--7--9--7--6--7--6------9---9--7--9--7--6--7--6----|
D|------------------------------------------------------------9-|
A|--------------------------------------------------------------|
E|--------------------------------------------------------------|x2

E|------7-----------------10^--9-------------------14-12----------------------14^-12-----------|
B|10-12---10p9p7----7------------10p9p7------7------------15p14p12------12------------15p14p12-|
G|----------------9----7------------------9-----7--------------------14----12------------------|
D|---------------------------------------------------------------------------------------------|
A|---------------------------------------------------------------------------------------------|
E|---------------------------------------------------------------------------------------------|

E|------------------------------------------------------|
B|9^--9p7----7-----------------------9p7----7-----------|
G|---------9----9--7--9--7--6--7--6-------9---9--7------|
D|--------------------------------------------------9~~-|
A|------------------------------------------------------|
E|------------------------------------------------------|

(guitar 2)
|-----------------------------------------------------------------|
|-----------------------------------------------------------------|
|-7-7-7-7-7-7-7-7-7-7-7-7-7-7-7-7-9-9-9-9-9-9-9-9-9-9-9-9-9-9-9-9-|
|-9-9-9-9-9-9-9-9-9-9-9-9-9-9-9-9-9-9-9-9-9-9-9-9-9-9-9-9-9-9-9-9-|
|-9-9-9-9-9-9-9-9-9-9-9-9-9-9-9-9-7-7-7-7-7-7-7-7-7-7-7-7-7-7-7-7-|
|-----------------------------------------------------------------|x6

(pause).... la la la la la la la....

(guitar 1)
|-----------------------------------------------------------------|
|-----------------------------------------------------------------|
|-7-7-7-7-7-7-7-7-7-7-7-7-7-7-7-7-9-9-9-9-9-9-9-9-9-9-9-9-9-9-9-9-|
|-9-9-9-9-9-9-9-9-9-9-9-9-9-9-9-9-9-9-9-9-9-9-9-9-9-9-9-9-9-9-9-9-|
|-9-9-9-9-9-9-9-9-9-9-9-9-9-9-9-9-7-7-7-7-7-7-7-7-7-7-7-7-7-7-7-7-|
|-----------------------------------------------------------------|x4

(guitar 2)
E|---------------------------------------------------------------|
B|---------------------------------------------------------------|
G|-7-7--7------7-7--7--------------------------------------------|
D|---------9-7----------9-7--------------------------------------|
A|-----------------------------11-11--11-14-17---11-11--11-14-17-|
E|-0-0--0--0-0-0-0--0---0-0-----0--0---0--0--0----0--0---0--0--0-|x4

(alone)
(guitar 1)
E|-----------------------------------------------------------------------------------------|
B|-15-15--15-/-10-10--10/12-12--12-/14-14--14--/12-12--12/14-14--14-/10-10--10-/15-15--15--| 
G|--x--x---x-/-x--x---x-/-x--x---x-/-x--x---x--/-x--x---x/-x--x---x-/-x--x---x-/-x--x---x--|  
D|--x--x---x-/-x--x---x-/-x--x---x-/-x--x---x--/-x--x---x/-x--x---x-/-x--x---x-/-x--x---x--|  
A|-14-14--14-/-9--9---9-/10-10--10-/12-12--12--/10-10--10/12-12--12-/-9--9---9-/14-14--14--| 
E|-----------------------------------------------------------------------------------------|x2

(after finish above these play together)
(Guitar 1)
E|-----------------------------------------------------------------------------------------|
B|-15-15--15-/-10-10--10/12-12--12-/14-14--14--/12-12--12/14-14--14-/10-10--10-/15-15--15--| 
G|--x--x---x-/-x--x---x-/-x--x---x-/-x--x---x--/-x--x---x/-x--x---x-/-x--x---x-/-x--x---x--|  
D|--x--x---x-/-x--x---x-/-x--x---x-/-x--x---x--/-x--x---x/-x--x---x-/-x--x---x-/-x--x---x--|  
A|-14-14--14-/-9--9---9-/10-10--10-/12-12--12--/10-10--10/12-12--12-/-9--9---9-/14-14--14--| 
E|-----------------------------------------------------------------------------------------|x4

(guitar 2)
E|-7------10-9-------9-7---7--10-9----12-9-7---7--10-9----12-9-------9-10-7---9~-|
B|---7-10------7-10------8---------10--------8---------10------7-8-7--------7----| 
G|-------------------------------------------------------------------------------|  
D|-------------------------------------------------------------------------------|  
A|-------------------------------------------------------------------------------| 
E|-------------------------------------------------------------------------------|x4

*waves goodbye* Later, sorry if it's not what you wanted or kinda wrong but yeah. sorry
if it's just a copy of someone else, i tried to make it my own but the other tabs looked
perfect, but there were some things that were kind of off. I might be hypicritical
because this might be wrong as well.
Comments