Strokes - Reptilia Chords & Tabs

 

Reptilia Chords & Tabs

Strokes Chords & Tabs

Version: 6 Type: Bass Tab 0 ratings
1 star 2 stars 3 stars 4 stars 5 stars
comments

Reptilia Bass Tab

   
Tabbed by:Eddie M.
email:shortguy2791@netscape.net
This is basically my first tab, and im pretty confident its right.
Standard tunning: G,D,A,E

Intro
G|---------------------------------------------------------------|
D|999999999999999999999999999999999999999999999999999999999999999|
A|---------------------------------------------------------------|
E|---------------------------------------------------------------|

G|----------------------------------------------------------------|
D|----------------9999999999999999----------------9999999999999999|
A|7777777777777777----------------7777777777777777----------------|
E|----------------------------------------------------------------|

G|------------------------------------------------|
D|----------------9999999999999999----------------|
A|7777777777777777----------------7777777777777777|
E|------------------------------------------------|

Then pause for guitar solo, then bass comes in:

G|----------------------------------------------------------------|
D|9999999999999999----------------9999999999999999----------------|
A|----------------7777777777777777----------------7777777777777777| 2x
E|----------------------------------------------------------------|
[ Tab from: http://www.guitartabs.cc/tabs/s/strokes/reptilia_btab_ver_6.html ]
Then pause for guitar solo
G|---------------------------------------------------------------|
D|---------------------------------------------------------------|
A|-----------------10-10--10-12-12--12-10-10--10-12-12--12-17-17-|
E|7-7--7-9-9-10-10-----------------------------------------------|
                                                                    3x
G|----------------------|
D|----------------------|
A|16-16-14-14-12--------|
E|----------------------|

Then 4th time through:
G|----------------------------------------------------------------------|
D|----------------------------------------------------------------------|
A|--------------10101010-12121212-10101010-12121212-17-17-16-16-14-14-12| 2x
E|7777-9999-1010--------------------------------------------------------|

Then immideately after:
G|----------------------------------------------------------------|
D|9999999999999999----------------9999999999999999----------------|
A|----------------7777777777777777----------------7777777777777777| 5x
E|----------------------------------------------------------------|

Then pause for guitar solo
G|---------------------------------------------------------------|
D|---------------------------------------------------------------|
A|-----------------10-10--10-12-12--12-10-10--10-12-12--12-17-17-|
E|7-7--7-9-9-10-10-----------------------------------------------|
                                                                    3x
G|----------------------|
D|----------------------|
A|16-16-14-14-12--------|
E|----------------------|

Then 4th time through:
G|----------------------------------------------------------------------|
D|----------------------------------------------------------------------|
A|--------------10101010-12121212-10101010-12121212-17-17-16-16-14-14-12| 2x
E|7777-9999-1010--------------------------------------------------------|

G|---------------------------------|
D|999999999999999999999999999999999|
A|---------------------------------|
E|---------------------------------|

And thats it...pretty sure its right...email me for questions.
PLEASE RATE!
Comments