Strokes - Reptilia Chords & Tabs

 

Reptilia Chords & Tabs

Strokes Chords & Tabs

Version: 4 Type: Bass Tab 0 ratings
1 star 2 stars 3 stars 4 stars 5 stars
comments

Reptilia Bass Tab

   
-------------------------------------------------------------------------------
			     Reptilia - The Strokes
-------------------------------------------------------------------------------

Tabbed By : MaxKashu
e-mail: MaxKAshu@aol.com
Hey all. There are some breaks in this song. I hope you can figure out where.
This is an awesome song, enjoy. E-mail me if any questions.

Tuning:EADG

Start
G|------------------------------------------|
D|------------------------------------------|
A|------------------------------------------|
E|-7777777777777777777777777777-------------|

Verse

G|-------------------------------------------------------------------|
D|-------------------------------------------------------------------|
A|-----------------7777777777777777----------------7777777777777777--|
E|-7777777777777777----------------7777777777777777------------------|
[ Tab from: http://www.guitartabs.cc/tabs/s/strokes/reptilia_btab_ver_4.html ]
Chorus
G|--------------------------------------------------------|
D|--------------------------------------------------------|
A|-----------------10-10--10-12-12--12-10-10--10-12-12--12|
E|-7-7--7-9-9-10-10---------------------------------------|

G|--------------------------------------------------------|
D|--------------------------------------------------------|
A|-17-17-16-16-14-14--------------------------------------|
E|-------------------14-14--------------------------------|(4 Times)

Verse

G|-------------------------------------------------------------------|
D|-------------------------------------------------------------------|
A|-----------------7777777777777777----------------7777777777777777--|
E|-7777777777777777----------------7777777777777777------------------|

END
G|------------------------------------------|
D|------------------------------------------|
A|------------------------------------------|
E|-7777777777777777777777777777-------------|

This is basically the whole song. Really repetative, and the bass line doesn't
change durring the guitar solo at all. So, goodluck and enjoy.
 
| /  slide up
| \  slide down
| h  hammer-on
| p  pull-off
| ~  vibrato
| +  harmonic
| x  Mute note
===============================================================================
Comments