Strokes - Reptilia Chords & Tabs

 

Reptilia Chords & Tabs

Strokes Chords & Tabs

Version: 3 Type: Bass Tab 0 ratings
1 star 2 stars 3 stars 4 stars 5 stars
comments

Reptilia Bass Tab

   
Reptilia


Intro
  B
G|--------------------------------|--------------------------------|
D|9-9-9-9-9-9-9-9-9-9-9-9-9-9-9-9-|9-9-9-9-9-9-9-9-9-9-9-9-9-9-9-9-| 2x
A|--------------------------------|--------------------------------|
E|--------------------------------|--------------------------------|

When Guitars join:
  B                                E
G|--------------------------------|--------------------------------|
D|--------------------------------|--------------------------------|
A|--------------------------------|7-7-7-7-7-7-7-7-7-7-7-7-7-7-7-7-| 4x
E|7-7-7-7-7-7-7-7-7-7-7-7-7-7-7-7-|--------------------------------|


Pause;
when Jules begins to sing
then again:

  B                                E
G|--------------------------------|--------------------------------|
D|--------------------------------|--------------------------------|
A|--------------------------------|7-7-7-7-7-7-7-7-7-7-7-7-7-7-7-7-| 4x
E|7-7-7-7-7-7-7-7-7-7-7-7-7-7-7-7-|--------------------------------|


Chorus (only first guitar)


then


  B       C#  D    G          A         
G|---------------------------------------|
D|---------------------------------------|
A|-----------------10-10---10-12-12---12-|
E|7-7---7-9-9-10-10----------------------|

  G          A          D     C#    B     A        3x 
G|-------------------------------------------|
D|-------------------------------------------|
A|10-10---10-12-12---12/17-17-16-16-14-14-12\|
E|-------------------------------------------|
                         
when he sings
"...you ran me off the road..."
then the bass plays:
[ Tab from: http://www.guitartabs.cc/tabs/s/strokes/reptilia_btab_ver_3.html ]
  B       C#  D    G           A         
G|-----------------------------------------|
D|-----------------------------------------|
A|-----------------10-10-10-10-12-12-12-12-|
E|7-7-7-7-9-9-10-10------------------------|

   G           A           D     C#    B     A        2x 
G|----------------------------------------------|
D|----------------------------------------------|
A|-10-10-10-10-12-12-12-12/17-17-16-16-14-14-12\|
E|----------------------------------------------|


During the Guitar solo:

  B                                E
G|--------------------------------|--------------------------------|
D|9-9-9-9-9-9-9-9-9-9-9-9-9-9-9-9-|--------------------------------|
A|--------------------------------|7-7-7-7-7-7-7-7-7-7-7-7-7-7-7-7-| 4x
E|--------------------------------|--------------------------------|

After solo (Bass only):

  B                                E
G|--------------------------------|--------------------------------|
D|9-9-9-9-9-9-9-9-9-9-9-9-9-9-9-9-|--------------------------------|
A|--------------------------------|7-7-7-7-7-7-7-7-7-7-7-7-7-7-7-7-| 6x
E|--------------------------------|--------------------------------|

When Guitars Join:

  B                                E
G|--------------------------------|--------------------------------|
D|--------------------------------|--------------------------------|
A|--------------------------------|7-7-7-7-7-7-7-7-7-7-7-7-7-7-7-7-| 4x
E|7-7-7-7-7-7-7-7-7-7-7-7-7-7-7-7-|--------------------------------|




Chorus again


Coda

  B
G|--------------------------------|--------------------------------|
D|9-9-9-9-9-9-9-9-9-9-9-9-9-9-9-9-|9-9-9-9-9-9-9-9-9-9-9-9-9-9-9-9-|
A|--------------------------------|--------------------------------|
E|--------------------------------|--------------------------------|
  B
G|-|
D|9|
A|-|
E|-|
Comments