Strokes - Reptilia Chords & Tabs

 

Reptilia Chords & Tabs

Strokes Chords & Tabs

Version: 2 Type: Bass Tab 0 ratings
1 star 2 stars 3 stars 4 stars 5 stars
comments

Reptilia Bass Tab

   
----------------------------------------------------------------------------
			     REPTILIA- THE STROKES
----------------------------------------------------------------------------

Tabbed By : ALEX V.
e-mail: soccerbum712@hotmail.com
This would be my first tab seeming it is tradition to say so around here
to say so.  No one else was gonna do it so i did

G|---------------------------------------------------------------|
D|999999999999999999999999999999999999999999999999999999999999999|
A|---------------------------------------------------------------|
E|---------------------------------------------------------------|

G|---------------------------------------------------------------|
D|---------------------------------------------------------------|
A|----------------7777777777777777-------------------------------|  X5
E|7777777777777777-----------------------------------------------|

The beginning part of the verse has only lead guitar.
Bass comes in after "...I know your not boring." 

G|---------------------------------------------------------------|
D|---------------------------------------------------------------|
A|----------------7777777777777777-------------------------------|  X5
E|7777777777777777-----------------------------------------------|

Another break with only lead then...                             

G|----------------------------776644-----------------------------|
D|---------55-5-77-7-55-5-77-7------44---------------------------|
A|22-2-4455------------------------------------------------------|  X3
E|---------------------------------------------------------------|

G|----------------------------776644-----------------------------|
D|---------5555-7777-5555-7777------44---------------------------|
A|2222-4455------------------------------------------------------|  X2
E|---------------------------------------------------------------|

[ Tab from: http://www.guitartabs.cc/tabs/s/strokes/reptilia_btab_ver_2.html ]
G|---------------------------------------------------------------|
D|9999999999999999-----------------------------------------------|
A|----------------7777777777777777-------------------------------|  X2
E|---------------------------------------------------------------|

G|---------------------------------------------------------------|
D|---------------------------------------------------------------|
A|----------------7777777777777777-------------------------------|  X1
E|7777777777777777-----------------------------------------------|

G|---------------------------------------------------------------|
D|9999999999999999-----------------------------------------------|
A|----------------7777777777777777-------------------------------|  X3
E|---------------------------------------------------------------|

G|---------------------------------------------------------------|
D|---------------------------------------------------------------|
A|----------------7777777777777777-------------------------------|  X4
E|7777777777777777-----------------------------------------------|

G|----------------------------776644-----------------------------|
D|---------55-5-77-7-55-5-77-7------44---------------------------|
A|22-2-4455------------------------------------------------------|  X3
E|---------------------------------------------------------------|

G|----------------------------776644-----------------------------|
D|---------5555-7777-5555-7777------44---------------------------|
A|2222-4455------------------------------------------------------|  X2
E|---------------------------------------------------------------|

G|---------------------------------------------------------------|
D|9 until the end------------------------------------------------|
A|---------------------------------------------------------------|  X1
E|---------------------------------------------------------------|

Best I can do email me for problems.

==================================================================
Comments