Strokes - New York City Cops Chords & Tabs

 

New York City Cops Chords & Tabs

Strokes Chords & Tabs

Version: 3 Type: Bass Tab 0 ratings
1 star 2 stars 3 stars 4 stars 5 stars
comments

New York City Cops Bass Tab

The Strokes, New York City Cops

Standard tunning:EADG

Intro
G:----------------------------           G:-------------------------|
D:----------------------------           D:----------------------2~-|
A:----------------------------  5x then  A:------------------2------|
E:-5-5-5-5-5-5-5-5--3-0-3-0-3-           E:-5-5-5-5-5-5-5-5----0----|

Pre-chorus
G:----------------------------------------------------------------------------------|
D:----14-12-14----------------------------------------------------------------------|
A:-12-----------12-12-12-12-12-12-12-12--10-5-2-5------------------5-5-5-5-5-5-5-5-|
E:--------------------------------------------------5-5-5-5-5-5-5-5-----------------|

G:-----------------------------------------------------------------|
D:---0-0---0-0------------------0-2-2---0-2-2---5555555555555555---|
A:-3-----3------2-2-2-2-2-2-2-2------------------------------------|
E:-----------------------------------------------------------------|

Chorus
G:---------------------------------------------------------------------------------|
D:---------------------------------------------------------------------------------|
A:3-3-3-3-3-3-3-3--------------------3-3-3-3-3-3-----------------------------------|x2
E:---------------1-1-1-1-1-1-1-1-------------0-0-1-1-1-1-3-3-3-3-------------------|

Verse
G:----------------------------         G:--------------------------------|
D:---------------------------- 5x then D:--------------------------------|
A:----------------------------         A:--------------------------------|
E:-5-5-5-5-5-5-5-5--3-0-3-0-3-         E:-5-5-5-5-5-5-5-5-3-0-3/15------|

Drum Solo Then:
[ Tab from: http://www.guitartabs.cc/tabs/s/strokes/new_york_city_cops_btab_ver_3.html ]
G:----------------------------         G:-------------------------|
D:---------------------------- 3x then D:----------------------2~-|
A:----------------------------         A:------------------2------|
E:-5-5-5-5-5-5-5-5--3-0-3-0-3-         E:-5-5-5-5-5-5-5-5----0----|

Pre-Chorus
G:----------------------------------------------------------------------------------|
D:----14-12-14----------------------------------------------------------------------|
A:-12-----------12-12-12-12-12-12-12-12---10-5-2-5------------------5-5-5-5-5-5-5-5-|
E:--------------------------------------------------5-5-5-5-5-5-5-5-----------------|

G:-7--5--4--2----------------|
D:-------------2-2-2-2-2-2-2-|
A:---------------------------|
E:---------------------------|

G:----------------------------------------------------------------------------------|
D:----14-12-14----------------------------------------------------------------------|
A:-12-----------12-12-12-12-12-12-12-12---10-5-2-5------------------5-5-5-5-5-5-5-5-|
E:--------------------------------------------------5-5-5-5-5-5-5-5-----------------|

G:-----------------------------------------------------------------|
D:---0-0---0-0------------------0-2-2---0-2-2---5555555555555555---|
A:-3-----3------2-2-2-2-2-2-2-2------------------------------------|
E:-----------------------------------------------------------------|


Chorus
G:---------------------------------------------------------------------------------|
D:---------------------------------------------------------------------------------|
A:3-3-3-3-3-3-3-3--------------------3-3-3-3-3-3-----------------------------------|x2
E:---------------1-1-1-1-1-1-1-1-------------0-0-1-1-1-1-3-3-3-3-------------------|

Outro
G:---------|
D:---------|
A:-3~------|
E:---------|

This is such an awesome song. A lot of fun to play once you get it down.
Watched the live video over and over and was at their concert some im 99.9% sure this is right.

Questions, Suggestions, comments email: mixnord1@netscape.net
Comments