Strokes - Last Nite Chords & Tabs

 

Last Nite Chords & Tabs

Strokes Chords & Tabs

Version: 5 Type: Tab 3 ratings
1 star 2 stars 3 stars 4 stars 5 stars
comments

Last Nite Tab

   
Guitar 1 Intro:
e---------
B---------
G-55555555          repeated over and over until verse
D-55555555
A-33333333
E---------

Guitar 2 Intro:
e------------------
B------------------
G-55555555---55555555
D-55555555---33333333
A-33333333---33333333
E------------------

Guitar 1 Verse:
e----------------------------------------------
B-----------------------------7-7-7-7----------
G-5-5-5-5-5-5-5-5---7-7-7-7---7-7-7-7---9-9-7-7
D-5-5-5-5-5-5-5-5---7-7-7-7---5-5-5-5---9-9-7-7
A-3-3-3-3-3-3-3-3---5-5-5-5-------------7-7-5-5
E----------------------------------------------
[ Tab from: http://www.guitartabs.cc/tabs/s/strokes/last_nite_tab_ver_5.html ]
Guitar 2 Verse:
e--------------------------------------------------------
B--------------------------------------------777-77-77777
G-555-55-55555-555-55-55555---777-77-77777---777-77-77777
D-555-55-55555-555-55-55555---777-77-77777---555-55-55555
A-333-33-33333-333-33-33333---555-55-55555---------------
E--------------------------------------------------------

e-------------
B-------------
G-999-99-77777
D-999-99-77777
A-777-77-55555
E-------------

Chorus:
e--------------------
B--------------------
G--------------------
D-33333333---55555555
A-33333333---55555555
E-11111111---33333333
Comments