Strokes - Last Nite Chords & Tabs

 

Last Nite Chords & Tabs

Strokes Chords & Tabs

Version: 3 Type: Tab 1 rating
1 star 2 stars 3 stars 4 stars 5 stars
comments

Last Nite Tab

INTRO
 GUITAR 2
---------
---------
-55555555
-55555555 REPEAT 9
-33333333
---------
 seconds
GUITAR 1
---------------------------------
---------------------------------
-10101010101010101212121212121212
-10101010101010101212121212121212 REPEAT 1
-8 8 8 8 8 8 8 8 1010101010101010 
---------------------------------

VERSE

GUITAR 2                     GUITAR 1
-------------------          ------
-------------------          ------
-5-5-5-*-55-*-55-*5          -12-*-
-5-5-5-*-55-*-55-*5 Repeat 1 -12-*- REPEAT THROUGHT ALL VERSES
-3-3-3-*-33-*-33-*3          -10-*- ON EVERY 2ND EAT
-------------------          ------

-------------------
--------------------
-7-7-7-*-77-*-77-*7-
-7-7-7-*-77-*-77-*7-
-5-5-5-*-55-*-55-*5-
--------------------

---------------------------
---------------------------
-12-12-12-*-1212-*-1212-*12
-12-12-12-*-1212-*-1212-*12 Repeat 1
-10-10-10-*-1010-*-1010-*10
---------------------------

-------------------
-------------------
-9-9-9-*-77-*-77-*7
-9-9-9-*-77-*-77-*7
-7-7-7-*-55-*-55-*5
-------------------

CHORUS

 GUITAR 2
---------
---------
-55555555
-55555555  Repeat 6
-33333333
---------
 
GUITAR 1
-----------------
-----------------
-1010101010101010
-1010101010101010 Repeat 6
-8 8 8 8 8 8 8 8 
-----------------

RIDGE

GUITAR 1  
------------------------
------------------------
-10-10-10-10-10-10101010
-10-10-10-10-10-10101010
-10-10-10-10-10-10101010 REPEAT 2
-8 -8 -8 -8 -8 -8 8 8 8

GUITAR 1                          GUITAR 2
------------------------          ----------------
------------------------          ----------------
-10-10-10-10-10-10101010          -5-5-5-5-5-5-5-5
-10-10-10-10-10-10101010          -5-5-5-5-5-5-5-5
-8 -8 -8 -8 -8 -8 8 8 8  REPEAT 4 -3-3-3-3-3-3-3-3 REPEAT 4
------------------------          ----------------

SOLO
[ Tab from: http://www.guitartabs.cc/tabs/s/strokes/last_nite_tab_ver_3.html ]
GUITAR 2
-------------------          -----
-------------------          -----
-5-5-5-*-55-*-55-*5          -5-*-
-5-5-5-*-55-*-55-*5 REPEAT 3 -5-*- PLAY ON EVERY SECOND BEAT
-3-3-3-*-33-*-33-*3          -5-*-
-------------------          -----


GUITAR 1

-13^(1 1/4)-15p13p11--11--13--15p13p11--10--11--10-----------------
--------------------10----------------10--10--10--8-8-8h10h11------
-------------------------------------------------------------8-8-10
------------------------------------------------------------------
-------------------------------------------------------------------
-------------------------------------------------------------------

-----------11--10-----------------------------------------------------
-------------10--8-8-8h10h11------------------------------------------
-10-8-8-10------------------0h8h10--0h10-----------------------------
-----------------------------------------13-10-13-10-13-10-13-10-13-10
----------------------------------------------------------------------
----------------------------------------------------------------------

----------14^-14^-14^-14^
-00000000-15^-15^-15^-15^
-00000000----------------
-00000000----------------
-------------------------
-------------------------

OUTRO

GUITAR 2                      

--------------------          ----------
--------------------          ----------
-5-5-5-*-55-*-55-*5-          -55555555-
-5-5-5-*-55-*-55-*5- REPEAT 3 -55555555- REPEAT 4
-3-3-3-*-33-*-33-*3-          -33333333-    
--------------------          ----------

GUITAR 1                       GUITAR 1
------                       -----------------
------                       -----------------
-10-*-                       -1010101010101010
-10-*-  REPEAT               -1010101010101010 REPEAT 1
-8 -*-  THROUGHOUT           -8 8 8 8 8 8 8 8 
------                       -----------------




ORDER OF SONG
INTRO
VERSE REPEAT 2
CHORUS REPEAT 3
VERSE REPEAT 1
RIDGE
SOLO
CHORUS REPEAT 3
PAUSE
VERSE REPEAT 2
OUTRO
Comments