Strokes - Last Nite Chords & Tabs

 

Last Nite Chords & Tabs

Strokes Chords & Tabs

Version: 1 Type: Tab 1 rating
1 star 2 stars 3 stars 4 stars 5 stars
comments

Last Nite Tab

Last Nite by the Strokes
tabbed by Kramer

Intro

(the way they play it is standard except each string is being strummed, only 2 are ringing.  So you gotta mute the other 4 strings.  If the strokes played the way the people who tab their songs out, they would sound bad.  But this is the best way to play the song.)

Guitar 2 
E|-----
B|-----
G|--5--
D|--x--
A|--3--
E|-----
repeat until verse one

Guitar 1 (comes in after drums)

E|-------------------
B|-------------------
G|-------------------
D|--10-------10------
A|---8-------10------
E|---8-(x8)---8-(x8)-
repeat until verse one

Verses

Guitar 2

(This is the best way to play the rythm part.  Mute all strings except B, G, and D.  Play it the way you hear it on the record.  The sloppier the better.)

    x12    x6    x6
E|--------------------
B|--5-----10-----12---
G|--5-----10-----12---
D|--5-----10-----12---
A|--------------------
E|--------------------

Guitar 1
   x8    x4     x4 
E|--8-----10-----7----
B|--8-----10-----8----
G|--9-----10-----7----
D|--------------------
A|--------------------
E|--------------------

Refrain (SAME AS INTRO)

Verse 2

Pre-solo

Guitar 2 (listen and notice they change the strumming style)

E|---------
B|---------
G|---------
D|---10----
A|----x----
E|----8----
[ Tab from: http://www.guitartabs.cc/tabs/s/strokes/last_nite_tab.html ]
then after a few measures:

Guitar 1

E|---------
B|---------
G|---17----
D|----x----
A|---15----
E|---------

Solo 

Guitar 2 plays the same rythm as the verses (C F G pattern)

Guitar 1
(Change it up each time you play it.)
E|---------------------------------------------
B|--18~~-18/20(16)---16--20h18(16)----16-------
G|-----------------17-------------17-(17)--15--

E|----------------------------------------------
B|--16----15------------13-13--------13-13------
G|-----14----12---15/17--------15/17--------15~~

E|-------------------------------
B|-------------------------------
G|--8-----8-----8----8----8------
D|----10----10----10---10---10---
A|-------------------------------
E|-------------------------------
 
strum fast   then..
E|---8--------------11\\-11\\-/12/11--
B|--10--------------10---10----10-10--
G|---9---------------9----9-----9--9--


Outro 

(again, a different strumming style.  better idea listen to the song than me try to describe it.)

Guitar 2
E|------------------
B|------------------
G|--5---------------
D|--x---------------
A|--3---------------
E|------------------

Guitar 1
E|------------------
B|------------------
G|------------------
D|--10--------------
A|---x--------------
E|---8--------------

Guitar 2 ends the song with the first figure.


My email is Jewggers@epimp.com.
Comments