Strokes - Last Night Chords & Tabs

 

Last Night Chords & Tabs

Strokes Chords & Tabs

Version: 3 Type: Tab 0 ratings
1 star 2 stars 3 stars 4 stars 5 stars
comments

Last Night Tab

Key:

^ = bend
H = hammer on
P = pull off
/ = slide up
\ = slide down
======================================================================================
Intro:

This part guitar 1 plays:

E -------------------------------------------------
B -------------------------------------------------
G -------------------------------------------------
D 10-10-10-10-10-10-10-10--10-10-10-10-10-10-10-10
A X--X--X--X--X--X--X--X---X--X--X--X--X--X--X--X--
E 8--8--8--8--8--8--8--8---8--8--8--8--8--8--8--8--

This part guitar 2 plays:

E -------------------------------------------------
B -------------------------------------------------
G -------------------------------------------------
D 10-10-10-10-10-10-10-10--10-10-10-10-10-10-10-10-
A 8--8--8--8--8--8--8--8---10-10-10-10-10-10-10-10-
E 8--8--8--8--8--8--8--8---8--8--8--8--8--8--8--8--


Chorus:
(This is the part where he says "last night, she said"...)

Guitar 1: slight distortion

E--------------------------------------------------------
B--------------------------------------------------------
G--5-5-5-5-5-5-5-5---7-7-7-7---12-12-12-12---10-10--7-7--
D--5-5-5-5-5-5-5-5---7-7-7-7---12-12-12-12---10-10--7-7--
A--3-3-3-3-3-3-3-3---5-5-5-5---10-10-10-10---7--7---5-5--
E--------------------------------------------------------

Guitar 2: clean
[ Tab from: http://www.guitartabs.cc/tabs/s/strokes/last_night_tab_ver_3.html ]
E-----------------------------------------------------------
B-----------------------------------------------------------
G--5-5-5--5-5-5-5-5-5--5-5-5--5-5-5-5-5-5--7-7-7--7-7-7-7-7-
D--5-5-5--5-5-5-5-5-5--5-5-5--5-5-5-5-5-5--7-7-7--7-7-7-7-7-
A--3-3-3--3-3-3-3-3-3--3-3-3--3-3-3-3-3-3--5-5-5--5-5-5-5-5-
E-----------------------------------------------------------

E ----------------------------------------------------------
A ----------------------------------------------------------
D ----------------------------------------------------------
G 12-12-12--12-12-12-12-12-12---12-12-12--12-12-12-12-12-12-
B 12-12-12--12-12-12-12-12-12---12-12-12--12-12-12-12-12-12-
E 10-10-10--10-10-10-10-10-10---10-10-10--10-10-10-10-10-10-

Verse:
(This is the part where he says "people they dont understand"...)

This part is the same as the intro.


Solo:
E-----------------------------------------------------------------------
B--18^--18p16\13-15-18--18p16\13--16----15----12^^----16----15-----12^^^
G-------------------------------------14----13-----10----14----13--------
D-----------------------------------------------------------------------
A-----------------------------------------------------------------------
E-----------------------------------------------------------------------

E------------------------------------------------------------------------
B-------------------------------------------------------16^^^------------
G--------------------------------12-12-12-12-12-12-12--------------------
D--13-10-13-10-13-10-13-10-13-10-12-12-12-12-12-12-12--------------------
A------------------------------------------------------------------------
E------------------------------------------------------------------------
Comments