Strokes - Last Night Chords & Tabs

 

Last Night Chords & Tabs

Strokes Chords & Tabs

Version: 11 Type: Tab 0 ratings
1 star 2 stars 3 stars 4 stars 5 stars
comments

Last Night Tab

   
LAST NITE
As recorded by The Strokes
(From the 2001 Album IS THIS IT)

F5    x 8 10 x x x 

C5/G  x 10 10 x x x 

C/G   x x 5 5 5 x 

F/C   x x 10 10 10 x 

G/D   x x 12 12 12 x 


Gtr I (E A D G B E) - 'Nick Valensi'
Gtr II (E A D G B E) - 'Albert Hammond Jr.'


   Intro
    Q=105(16=s16)
    N.C.
   4/4
    Gtr I
     E  E  E  E  E  E  E  E    E  E  E  E  E  E  E  E
||--------------------------|--------------------------||
||o-------------------------|-------------------------o||
||--------------------------|--------------------------||
||--10-10-10-10-10-10-10-10-|-10-10-10-10-10-10-10-10--||
||o--x--x--x--x--x--x--x--x-|--x--x--x--x--x--x--x--x-o||
||---8--8--8--8--8--8--8--8-|--8--8--8--8--8--8--8--8--||


  F5                        C5/G
  Gtr II
   E  E  E  E  E  E  E  E    E  E  E  E  E  E  E  E
|-------------------------|-------------------------|
|-------------------------|-------------------------|
|-------------------------|-------------------------|
|-10-10-10-10-10-10-10-10-|-10-10-10-10-10-10-10-10-|
|--8--8--8--8--8--8--8--8-|-10-10-10-10-10-10-10-10-|
|-------------------------|-------------------------|
|
| Gtr I
|  E  E  E  E  E  E  E  E    E  E  E  E  E  E  E  E
|-------------------------|-------------------------|
|-------------------------|-------------------------|
|-------------------------|-------------------------|
|-10-10-10-10-10-10-10-10-|-10-10-10-10-10-10-10-10-|
|--x--x--x--x--x--x--x--x-|--x--x--x--x--x--x--x--x-|
|--8--8--8--8--8--8--8--8-|--8--8--8--8--8--8--8--8-|


    F5                        C5/G
    Gtr II
     E  E  E  E  E  E  E  E    E  E  E  E  E  E  E  E
     |  |  |  |  |  |  |  |    |  |  |  |  |  |  |  |
     /  /  /  /  /  /  /  /    /  /  /  /  /  /  /  /

    Gtr I
     E  E  E  E  E  E  E  E    E  E  E  E  E  E  E  E  3x
||--------------------------|--------------------------||
||o-------------------------|-------------------------o||
||--------------------------|--------------------------||
||--10-10-10-10-10-10-10-10-|-10-10-10-10-10-10-10-10--||
||o--x--x--x--x--x--x--x--x-|--x--x--x--x--x--x--x--x-o||
||---8--8--8--8--8--8--8--8-|--8--8--8--8--8--8--8--8--||


   Verse
    $
    C/G
    Gtr I
    e e E.   S S e   S S S S S   e e E.   S S e   S S S S S
    | | |    |   |   | | | | |   | | |    |   |   | | | | |
    / / /    /   /   / / / / /   / / /    /   /   / / / / /

    Gtr II
    E E E  E   E   E   E   E     E E E  E   E   E   E   E
||----8----8-------8-------8---|---8----8-------8-------8---|
||o---8----8-------8-------8---|---8----8-------8-------8---|
||----9----9-------9-------9---|---9----9-------9-------9---|
||-----------------------------|----------------------------|
||o----------------------------|----------------------------|
||-----------------------------|----------------------------|


  F/C
  e e E.   S S e   S S S S S
  | | |    |   |   | | | | |
  / / /    /   /   / / / / /

  E E E  E   E   E   E   E
|---1----1-------1-------1---|
|---1----1-------1-------1---|
|---2----2-------2-------2---|
|----------------------------|
|----------------------------|
|----------------------------|


  G/D
  e e E.   S S e   S S S S S   e e E.   S S e   S S S S S
  | | |    |   |   | | | | |   | | |    |   |   | | | | |
  / / /    /   /   / / / / /   / / /    /   /   / / / / /

  E E E  E   E   E   E   E     E E E  E   E   E   E   E
|---3----3-------3-------3---|---3----3-------3-------3---|
|---3----3-------3-------3---|---3----3-------3-------3---|
|---4----4-------4-------4---|---4----4-------4-------4---|
|----------------------------|----------------------------|
|----------------------------|----------------------------|
|----------------------------|----------------------------|


  C/G
  e e E.   S S e   S S S S S
  | | |    |   |   | | | | |
  / / /    /   /   / / / / /

  E E E  E   E   E   E   E
|---8----8-------8-------8---|
|---8----8-------8-------8---|
|---9----9-------9-------9---|
|----------------------------|
|----------------------------|
|----------------------------|


                               F/C
  e e E.   S S e   S S S S S   e e E.   S S e   S S S S S
  | | |    |   |   | | | | |   | | |    |   |   | | | | |
  / / /    /   /   / / / / /   / / /    /   /   / / / / /

  E E E  E   E   E   E   E     E E E  E   E   E   E   E
|---8----8-------8-------8---|---1----1-------1-------1---|
|---8----8-------8-------8---|---1----1-------1-------1---|
|---9----9-------9-------9---|---2----2-------2-------2---|
|----------------------------|----------------------------|
|----------------------------|----------------------------|
|----------------------------|----------------------------|


  G/D
  e e E.   S S e   S S S S S
  | | |    |   |   | | | | |
  / / /    /   /   / / / / /

  E E E  E   E   E   E   E
|---3----3-------3-------3---|
|---3----3-------3-------3---|
|---4----4-------4-------4---|
|----------------------------|
|----------------------------|
|----------------------------|


                              1.
                      To Coda
                               C/G
  e e E.   S S e   S S S S S   e e E.   S S e   S S S S S
  | | |    |   |   | | | | |   | | |    |   |   | | | | |
  / / /    /   /   / / / / /   / / /    /   /   / / / / /

  E E E  E   E   E   E   E     E E E  E   E   E   E   E
|---3----3-------3-------3---|---8----8-------8-------8---|
|---3----3-------3-------3---|---8----8-------8-------8---|
|---4----4-------4-------4---|---9----9-------9-------9---|
|----------------------------|----------------------------|
|----------------------------|----------------------------|
|----------------------------|----------------------------|


  C/G                          F/C
  e e E.   S S e   S S S S S   e e E.   S S e   S S S S S
  | | |    |   |   | | | | |   | | |    |   |   | | | | |
  / / /    /   /   / / / / /   / / /    /   /   / / / / /

  E E E  E   E   E   E   E     E E E  E   E   E   E   E
|---8----8-------8-------8---|---1----1-------1-------1---|
|---8----8-------8-------8---|---1----1-------1-------1---|
|---9----9-------9-------9---|---2----2-------2-------2---|
|----------------------------|----------------------------|
|----------------------------|----------------------------|
|----------------------------|----------------------------|


  G/D
  e e E.   S S e   S S S S S   e e E.   S S e   S S S S S
  | | |    |   |   | | | | |   | | |    |   |   | | | | |
  / / /    /   /   / / / / /   / / /    /   /   / / / / /

  E E E  E   E   E   E   E     E E E  E   E   E   E   E
|---3----3-------3-------3---|---3----3-------3-------3------||
|---3----3-------3-------3---|---3----3-------3-------3------||
|---4----4-------4-------4---|---4----4-------4-------4------||
|----------------------------|-------------------------------||
|----------------------------|-------------------------------||
|----------------------------|-------------------------------||


 Chorus
  F5                        C5/G
  Gtr II
   E  E  E  E  E  E  E  E    E  E  E  E  E  E  E  E
   |  |  |  |  |  |  |  |    |  |  |  |  |  |  |  |
   /  /  /  /  /  /  /  /    /  /  /  /  /  /  /  /

  Gtr I
   E  E  E  E  E  E  E  E    E  E  E  E  E  E  E  E
|-------------------------|-------------------------|
|-------------------------|-------------------------|
|-------------------------|-------------------------|
|-10-10-10-10-10-10-10-10-|-10-10-10-10-10-10-10-10-|
|--x--x--x--x--x--x--x--x-|--x--x--x--x--x--x--x--x-|
|--8--8--8--8--8--8--8--8-|--8--8--8--8--8--8--8--8-|


  F5                        C5/G
   E  E  E  E  E  E  E  E    E  E  E  E  E  E  E  E
   |  |  |  |  |  |  |  |    |  |  |  |  |  |  |  |
   /  /  /  /  /  /  /  /    /  /  /  /  /  /  /  /

   E  E  E  E  E  E  E  E    E  E  E  E  E  E  E  E
|-------------------------|-------------------------|
|-------------------------|-------------------------|
|-------------------------|-------------------------|
|-10-10-10-10-10-10-10-10-|-10-10-10-10-10-10-10-10-|
|--x--x--x--x--x--x--x--x-|--x--x--x--x--x--x--x--x-|
|--8--8--8--8--8--8--8--8-|--8--8--8--8--8--8--8--8-|


  F5                        C5/G
   E  E  E  E  E  E  E  E    E  E  E  E  E  E  E  E
   |  |  |  |  |  |  |  |    |  |  |  |  |  |  |  |
   /  /  /  /  /  /  /  /    /  /  /  /  /  /  /  /

   E  E  E  E  E  E  E  E    E  E  E  E  E  E  E  E
|-------------------------|-------------------------|
|-------------------------|-------------------------|
|-------------------------|-------------------------|
|-10-10-10-10-10-10-10-10-|-10-10-10-10-10-10-10-10-|
|--x--x--x--x--x--x--x--x-|--x--x--x--x--x--x--x--x-|
|--8--8--8--8--8--8--8--8-|--8--8--8--8--8--8--8--8-|


  F5                        C5/G
   E  E  E  E  E  E  E  E    E  E  E  E  E  E  E  E
   |  |  |  |  |  |  |  |    |  |  |  |  |  |  |  |
   /  /  /  /  /  /  /  /    /  /  /  /  /  /  /  /

   E  E  E  E  E  E  E  E    E  E  E  E  E  E  E  E
|-------------------------|--------------------------||
|-------------------------|-------------------------o||
|-------------------------|--------------------------||
|-10-10-10-10-10-10-10-10-|-10-10-10-10-10-10-10-10--||
|--x--x--x--x--x--x--x--x-|--x--x--x--x--x--x--x--x-o||
|--8--8--8--8--8--8--8--8-|--8--8--8--8--8--8--8--8--||


 Bridge
  2.
  N.C.
  Gtr II
   E  S  E  S  E.  S  E  E  E    E  S  E  S  E.  S  E  S S  S S
|-----------------------------|---------------------------------|
|-----------------------------|---------------------------------|
|-----------------------------|--------------------------x--0-x-|
|-10-10-10-10-10--10-10-10-10-|-10-10-10-10-10--10-10-10-x--0-x-|
|--x--x--x--x--x---x--x--x--x-|--x--x--x--x--x---x--x--x-x----x-|
|--8--8--8--8--8---8--8--8--8-|--8--8--8--8--8---8--8--8--------|
|
| Gtr I
|  E  S  E  S  E.  S  E  E  E    E  S  E  S  E.  S  E  E    E
|-----------------------------|---------------------------------|
|-----------------------------|---------------------------------|
|-----------------------------|---------------------------------|
|-10-10-10-10-10--10-10-10-10-|-10-10-10-10-10--10-10-10---10---|
|--x--x--x--x--x---x--x--x--x-|--x--x--x--x--x---x--x--x----x---|
|--8--8--8--8--8---8--8--8--8-|--8--8--8--8--8---8--8--8----8---|

[ Tab from: http://www.guitartabs.cc/tabs/s/strokes/last_night_tab_ver_11.html ]
  F5
   E  S  E  S  E.  S  E  E  E
|------------------------------|
|-13-13-13-13-13--13-13-13-13--|
|--x--x--x--x--x---x--x--x--x--|
|-10-10-10-10-10--10-10-10-10--|
|------------------------------|
|------------------------------|
|
|  E  S  E  S  E.  S  E  E  E
|------------------------------|
|------------------------------|
|------------------------------|
|-10-10-10-10-10--10-10-10-10--|
|--x--x--x--x--x---x--x--x--x--|
|--8--8--8--8--8---8--8--8--8--|


  C5/G                          F5
   E  S  E  S  E.  S  E  E  E    E  S  E  S  E.  S  E  E  E
|-----------------------------|-----------------------------|
|-13-13-13-13-13--13-13-13-13-|-13-13-13-13-13--13-13-13-13-|
|--x--x--x--x--x---x--x--x--x-|--x--x--x--x--x---x--x--x--x-|
|-10-10-10-10-10--10-10-10-10-|-10-10-10-10-10--10-10-10-10-|
|-----------------------------|-----------------------------|
|-----------------------------|-----------------------------|
|
|  E  S  E  S  E.  S  E  E  E    E  S  E  S  E.  S  E  E  E
|-----------------------------|-----------------------------|
|-----------------------------|-----------------------------|
|-----------------------------|-----------------------------|
|-10-10-10-10-10--10-10-10-10-|-10-10-10-10-10--10-10-10-10-|
|--x--x--x--x--x---x--x--x--x-|--x--x--x--x--x---x--x--x--x-|
|--8--8--8--8--8---8--8--8--8-|--8--8--8--8--8---8--8--8--8-|


  C5/G
   E  S  E  S  E.  S  E  E  E
|-----------------------------||
|-13-13-13-13-13--13-13-13-13-||
|--x--x--x--x--x---x--x--x--x-||
|-10-10-10-10-10--10-10-10-10-||
|-----------------------------||
|-----------------------------||
|
|  E  S  E  S  E.  S  E  E  E
|-----------------------------||
|-----------------------------||
|-----------------------------||
|-10-10-10-10-10--10-10-10-10-||
|--x--x--x--x--x---x--x--x--x-||
|--8--8--8--8--8---8--8--8--8-||


 Solo
  C/G
  Gtr I
   e     e E. S   S  e  S   S   S  S S    e e  E.   S  S         e         S    S  S  S S
   |     | |  |      |  |   |   |  | |    | |  |    |            |         |    |  |  | |
   /     / /  /      /  /   /   /  / /    / /  /    /            /         /    /  /  / /

  Gtr II
                                                       |-----3------|
   H             +E.    S  +S   S  E      Q    Q       S     +S     S  S   S   +E     E
|-13b15=========(13)---13r(13)p11------|-11---13b15---13b15r(13)p==11-----11--(11)--------|
|---------------------------------13---|------------------------------13-(13)-(13)--------|
|--------------------------------------|---------------------------------------------10---|
|--------------------------------------|--------------------------------------------------|
|--------------------------------------|--------------------------------------------------|
|--------------------------------------|--------------------------------------------------|


  F/C
   e  e  E.   S  S    e    S    S S  S S
   |  |  |    |       |    |    | |  | |
   /  /  /    /       /    /    / /  / /

   E  E  E  E    S    S S  S    S S  E
|-11----10------------8-8-------8-8-------|
|----10-----8---11b13-----11b13-----------|
|-----------------------------------10----|
|-----------------------------------------|
|-----------------------------------------|
|-----------------------------------------|


  F/C                                        G/D
   e  e  E.   S  S    e    S     S  S  S S    e    e     E.     S S  e    S  S S  S S
   |  |  |    |       |    |     |  |  | |    |    |     |      |    |    |  | |  | |
   /  /  /    /       /    /     /  /  / /    /    /     /      /    /    /  / /  / /

   E  E  E  E    S    S S  S     S  S  E      S  E    S  E   S  E    S  E    E    E
|-11----10------------8-8--------8--8------|------------------------------------------|
|----10-----8---11b13-----11b13====11r11---|------------------------------------------|
|------------------------------------------|------------------------------------------|
|------------------------------------------|-13-10---13-10--13-10---13-10---13---10---|
|------------------------------------------|------------------------------------------|
|------------------------------------------|------------------------------------------|


  G/D
   e           e           E.                 S     S     e    S  S S  S  S
   |           |           |                  |           |    |  | |  |  |
   /           /           /                  /           /    /  / /  /  /

                                                    ~~~~~~
   T  T  T  T  T  T  T  T  T   T  T  T  T  T  T  T  E        E    E    E
|--------------------------------------------------14b15====14---14---14r---||
|-12-12-12-12-12-12-12-12-12--12-12-12-12-12-12-12-13-------13---13---13----||
|-12-12-12-12-12-12-12-12-12--12-12-12-12-12-12-12--------------------------||
|-12-12-12-12-12-12-12-12-12--12-12-12-12-12-12-12--------------------------||
|---------------------------------------------------------------------------||
|---------------------------------------------------------------------------||


 Chorus
  F5                        C5/G
  Gtr II
   E  E  E  E  E  E  E  E    E  E  E  E  E  E  E  E
   |  |  |  |  |  |  |  |    |  |  |  |  |  |  |  |
   /  /  /  /  /  /  /  /    /  /  /  /  /  /  /  /

  Gtr I
   E  E  E  E  E  E  E  E    E  E  E  E  E  E  E  E
|-------------------------|-------------------------|
|-------------------------|-------------------------|
|-------------------------|-------------------------|
|-10-10-10-10-10-10-10-10-|-10-10-10-10-10-10-10-10-|
|--x--x--x--x--x--x--x--x-|--x--x--x--x--x--x--x--x-|
|--8--8--8--8--8--8--8--8-|--8--8--8--8--8--8--8--8-|


  F5                        C5/G
   E  E  E  E  E  E  E  E    E  E  E  E  E  E  E  E
   |  |  |  |  |  |  |  |    |  |  |  |  |  |  |  |
   /  /  /  /  /  /  /  /    /  /  /  /  /  /  /  /

   E  E  E  E  E  E  E  E    E  E  E  E  E  E  E  E
|-------------------------|-------------------------|
|-------------------------|-------------------------|
|-------------------------|-------------------------|
|-10-10-10-10-10-10-10-10-|-10-10-10-10-10-10-10-10-|
|--x--x--x--x--x--x--x--x-|--x--x--x--x--x--x--x--x-|
|--8--8--8--8--8--8--8--8-|--8--8--8--8--8--8--8--8-|


  F5                        C5/G
   E  E  E  E  E  E  E  E    E  E  E  E  E  E  E  E
   |  |  |  |  |  |  |  |    |  |  |  |  |  |  |  |
   /  /  /  /  /  /  /  /    /  /  /  /  /  /  /  /

   E  E  E  E  E  E  E  E    E  E  E  E  E  E  E  E
|-------------------------|-------------------------|
|-------------------------|-------------------------|
|-------------------------|-------------------------|
|-10-10-10-10-10-10-10-10-|-10-10-10-10-10-10-10-10-|
|--x--x--x--x--x--x--x--x-|--x--x--x--x--x--x--x--x-|
|--8--8--8--8--8--8--8--8-|--8--8--8--8--8--8--8--8-|


                                   D.S. al Coda
  F5                        C5/G
   E  E  E  E  E  E  E  E    E  E  E  E  E E Q
   |  |  |  |  |  |  |  |    |  |  |  |  |
   /  /  /  /  /  /  /  /    /  /  /  /  /

   E  E  E  E  E  E  E  E    E  E  E  E  E E Q
|-------------------------|---------------------|
|-------------------------|---------------------|
|-------------------------|---------------------|
|-10-10-10-10-10-10-10-10-|-10-10-10-10-10------|
|--x--x--x--x--x--x--x--x-|--x--x--x--x--x------|
|--8--8--8--8--8--8--8--8-|--8--8--8--8--8------|


 Outro
  &
  C/G
  Gtr I
  e e E.   S S e   S S S S S   e e E.   S S e   S S S S S
  | | |    |   |   | | | | |   | | |    |   |   | | | | |
  / / /    /   /   / / / / /   / / /    /   /   / / / / /

  Gtr II
  E E E  E   E   E   E   E     E E E  E   E   E   E   E
|---8----8-------8-------8---|---8----8-------8-------8---|
|---8----8-------8-------8---|---8----8-------8-------8---|
|---9----9-------9-------9---|---9----9-------9-------9---|
|----------------------------|----------------------------|
|----------------------------|----------------------------|
|----------------------------|----------------------------|


  F5
  Gtr II
   E  E  E  E    E    E     E     E
   |  |  |  |    |    |     |     |
   /  /  /  /    /    /     /     /

  Gtr I
   e  e  E.    S S  e    S  S  S  S  S
|--------------------------------------|
|--------------------------------------|
|--------------------------------------|
|-10-10-10----10---10---10-10-10-10-10-|
|--x--x--x-----x----x----x--x--x--x--x-|
|--8--8--8-----8----8----8--8--8--8--8-|


  C5/G
   E  E  E  E    E    E     E     E
   |  |  |  |    |    |     |     |
   /  /  /  /    /    /     /     /

   e  e  E.    S S  e    S  S  S  S  S
|--------------------------------------|
|--------------------------------------|
|--------------------------------------|
|-10-10-10----10---10---10-10-10-10-10-|
|--x--x--x-----x----x----x--x--x--x--x-|
|--8--8--8-----8----8----8--8--8--8--8-|


  F5                        C5/G
   E  E  E  E  E  E  E  E    E  E  E  E  E  E  E  E
   |  |  |  |  |  |  |  |    |  |  |  |  |  |  |  |
   /  /  /  /  /  /  /  /    /  /  /  /  /  /  /  /

   E  E  E  E  E  E  E  E    E  E  E  E  E  E  E  E
|-------------------------|--------------------------|
|-------------------------|--------------------------|
|-------------------------|--------------------------|
|-10-10-10-10-10-10-10-10-|-10-10-10-10-10-10-10-10--|
|--x--x--x--x--x--x--x--x-|--x--x--x--x--x--x--x--x--|
|--8--8--8--8--8--8--8--8-|--8--8--8--8--8--8--8--8--|


  N.C.
   E  E  E  E  E  E  E  E    E  E  E  E  E  E  E  E    q  Q  H
|-------------------------|-------------------------|-------------*|
|-------------------------|-------------------------|-------------*|
|-------------------------|-------------------------|-------------*|
|-10-10-10-10-10-10-10-10-|-10-10-10-10-10-10-10-10-|-10----------*|
|--x--x--x--x--x--x--x--x-|--x--x--x--x--x--x--x--x-|--x----------*|
|--8--8--8--8--8--8--8--8-|--8--8--8--8--8--8--8--8-|--8----------*|




--------------------------------------------------------------------------------


Duration Legend
---------------
W - whole; H - half; Q - quarter; E - 8th; S - 16th; T - 32nd; X - 64th; a - acciaccatura
+ - note tied to previous; . - note dotted; .. - note double dotted
Uncapitalized letters represent notes that are staccato (1/2 duration)
Irregular groupings are notated above the duration line
Duration letters will always appear directly above the note/fret number it represents the
duration for.  Duration letters with no fret number below them represent rests.  Multi-
bar rests are notated in the form Wxn, where n is the number of bars to rest for.  Low
melody durations appear below the staff

Tablature Legend
----------------
 h   - hammer-on
 p   - pull-off
 b   - bend
 pb  - pre-bend
 r   - bend release (if no number after the r, then release immediately)
 /\  - slide into or out of (from/to "nowhere")
 s   - legato slide
 S   - shift slide
 - natural harmonic
[n]  - artificial harmonic
n(n) - tapped harmonic
 ~   - vibrato
 tr  - trill
 T   - tap
 TP  - trem. picking
 PM  - palm muting
\n/  - tremolo bar dip; n = amount to dip
 \n  - tremolo bar down
 n/  - tremolo bar up
/n\  - tremolo bar inverted dip
 =   - hold bend; also acts as connecting device for hammers/pulls
 <> - volume swell (louder/softer)
 x   - on rhythm slash represents muted slash
 o   - on rhythm slash represents single note slash

Misc Legend
-----------
 |  - bar
||  - double bar
||o - repeat start
o|| - repeat end
*|  - double bar (ending)
 :  - bar (freetime)
 $  - Segno
 &  - Coda
Tempo markers -  = BPM(8/16=s8/s16), where s8 = swing 8ths, s16 = swing 16ths
Comments