Strokes - Last Night Chords & Tabs

 

Last Night Chords & Tabs

Strokes Chords & Tabs

Version: 6 Type: Bass Tab 0 ratings
1 star 2 stars 3 stars 4 stars 5 stars
comments

Last Night Bass Tab

   
Tuning: E A D G

-Intro-
G|-----------------------------------------|
D|-----------------------------------------|
A|-8-8-8-8-8-8-8-8-10-10-10-10-10-10-10-10-| (x3)
E|-----------------------------------------|

G|------------------------------------------|
D|------------------------------------------|
A|-8-8-8-8-8-8-8-8-10-10-10-10-10-10-10-10\-|
E|------------------------------------------|

-Verse-
G|-------------------------------------------------------|
D|--------------------------------5---5--5---------------|
A|-3--3-33--3--3-33--5--5-55--5h7-----------7---7-5---5\-|
E|-------------------------------------------------------|

G|---------------------------------------------------------------|
D|----------------------------------------5---5--5---------------|
A|-3--3-33--3--3-3-3p0-----3-5--5-55--5h7-----------7---7-5---5\-|
E|---------------------3h5---------------------------------------|

G|-----------------------------------------------------------------------------|
D|------------------------------------------------5---5--5---------------------|
A|-3--3-3-3p0-----3-3--3-3-3p0-----3-5--5-55--5h7-----------7---7-5---5\5---5/-|
E|------------3h5--------------3h5---------------------------------------------|

-Chorus- 
G|-----------------------------------------|
D|-----------------------------------------|
A|-8-8-8-8-8-8-8-8-10-10-10-10-10-10-10-10-| (x3)
E|-----------------------------------------|

G|------------------------------------------|
D|------------------------------------------|
A|-8-8-8-8-8-8-8-8-10-10-10-10-10-10-10-10\-|
E|------------------------------------------|

-Verse 2-
G|---------------------------------------------------------------|
D|----------------------------------------5---5--5---------------|
A|-3--3-33--3--3-3-3p0-----3-5--5-55--5h7-----------7---7-5---5\-|
E|---------------------3h5---------------------------------------|
[ Tab from: http://www.guitartabs.cc/tabs/s/strokes/last_night_btab_ver_6.html ]
G|---------------------------------------------------------------------|
D|----------------------------------------5---5--5---------------------|
A|-3--3-33--3--3-3-3p0-----3-5--5-55--5h7-----------7---7-5---5\5---5\-|
E|---------------------3h5---------------------------------------------|

-Interlude-
G|-----------------------------------------|
D|-----------------------------------------|
A|-8-8-8-8-8-8-8-8-10-10-10-10-10-10-10-10-| 
E|-----------------------------------------|

G|------------------------------------------|
D|------------------------------------------|
A|-8-8-8-8-8-8-8-8-10-10-10-10-10-10-10-10\-|
E|------------------------------------------|

-Guitar Solo-
G|---------------------------------|
D|---------------------------------|
A|-3-3-3-3-3-3-3-3-3-3-3-3-3-3-3-3-|
E|---------------------------------|

G|---------------------------------|
D|---------------------------------|
A|---------------------------------|
E|-1-1-1-1-1-1-1-1-1-1-1-1-1-1-1-1-|

G|----------------------------------|
D|-----------------5-5-5-5-5-5-5-5/-|
A|----------------------------------|
E|-3-3-3-3-3-3-3-3------------------|

-Chorus 2-
G|-----------------------------------------|
D|-----------------------------------------|
A|-8-8-8-8-8-8-8-8-10-10-10-10-10-10-10-10-| (x3)
E|-----------------------------------------|

G|------------------------------------------|
D|------------------------------------------|
A|-8-8-8-8-8-8-8-8-10-10-10-10-10-----------|
E|------------------------------------------|

-Verse 3-
G|-------------------------------------------------------|
D|--------------------------------5---5--5---------------|
A|-3--3-33--3--3-33--5--5-55--5h7-----------7---7-5---5\-|
E|-------------------------------------------------------|

G|-----------------------------------------------------------------------|
D|------------------------------------------------5---5--5---------------|
A|-3--3-3-3p0-----3-3--3-3-3p0-----3-5--5-55--5h7-----------7---7-5---5\-|
E|------------3h5--------------3h5---------------------------------------|

G|----------------------------------|
D|----------------------------------|
A|-3-3-3-3-3-3-3-3-3-3-3-3-3-3-3-3/-|
E|----------------------------------|

-Outro-
G|-----------------------------------------|
D|-----------------------------------------|
A|-8-8-8-8-8-8-8-8-10-10-10-10-10-10-10-10-| (x2)
E|-----------------------------------------|
Comments