Strokes - Killing Lies Chords & Tabs

 

Killing Lies Chords & Tabs

Strokes Chords & Tabs

Version: 1 Type: Bass Tab

Killing Lies Bass Tab

                             KILLING LIES (Bassline)
                           As recorded by The Strokes
                (From the 2006 Album FIRST IMPRESSIONS OF EARTH)

Words by Julian Casablancas
Music by The Strokes
Arranged by Julian Casablancas and Nikolai Fraiture
Transcribed by wasp2020

Verse (PM)
||------------------|-----------------|-----------------|
||--------------8---|-----------------|-----------------|
||--9-9-8-9-9-9---9-|-------------6---|-------------6---|
||------------------|-7-7-6-7-7-7---7-|-7-7-6-7-7-7---7-|

|-----------------|-----------------|------------------||
|-----------------|-------------8---|-------------8----||
|-------------8---|-9-9-8-9-9-9---9-|-9-9-8-9-9-9---9--||
|-9-9-7-9-9-9---9-|-----------------|------------------|| x2 (x3 for Verse 2)


||-------------------------|-------------------------|-------------------------|
||-------------------11----|-------------------13----|-------------------13----|
||-13-13-11-13-13-13----13-|-14-14-13-14-14-14----14-|-14-14-13-14-14-14----14-|
||-------------------------|-------------------------|-------------------------|

|-----------------|-----------------|-----------------||
|-------------6---|-------------8---|-------------8---||
|-8-8-6-8-8-8---8-|-9-9-8-9-9-9---9-|-9-9-8-9-9-9---9-||
|-----------------|-----------------|-----------------|| x2



[ Tab from: http://www.guitartabs.cc/tabs/s/strokes/killing_lies_btab.html ]
Chorus (w/o PM)
||------------------|-----------------|-----------------|
||--------------8---|-----------------|-----------------|
||--9-9-8-9-9-9---9-|-------------6---|-------------6---|
||------------------|-7-7-6-7-7-7---7-|-7-7-6-7-7-7---7-|

|-----------------|-----------------|------------------||
|-----------------|-------------8---|-------------8----||
|-------------8---|-9-9-8-9-9-9---9-|-9-9-8-9-9-9---9--||
|-9-9-7-9-9-9---9-|-----------------|------------------|| x2




Guitar Break (PM)
||-------------------------|-------------------------|-------------------------|
||-------------------11----|-------------------13----|-------------------13----|
||-13-13-11-13-13-13----13-|-14-14-13-14-14-14----14-|-14-14-13-14-14-14----14-|
||-------------------------|-------------------------|-------------------------|

|-----------------|-----------------|-----------------||
|-------------6---|-------------8---|-------------8---||
|-8-8-6-8-8-8---8-|-9-9-8-9-9-9---9-|-9-9-8-9-9-9---9-||
|-----------------|-----------------|-----------------|| x2




Outro (PM)                          (w/o PM)
|-----------------|-----------------|----------|---|
|-------------8---|-------------8---|-4--------|---|
|-9-9-8-9-9-9---9-|-9-9-8-9-9-9---9-|----------|---|
|-----------------|-----------------|----------|-2-|

Legend:
PM - Palm Mute
w/o PM - Without Palm Mute