Strokes - Juice Box Chords & Tabs

 

Juice Box Chords & Tabs

Strokes Chords & Tabs

Version: 2 Type: Tab 0 ratings
1 star 2 stars 3 stars 4 stars 5 stars
comments

Juice Box Tab

   
-The Strokes
-Juicebox(unreleased)               A.Mazzei

This is the new single to come off the long awaited third album 'First Impressions Of Earth'.
_____________________________________________________________

This is the bass riff and i think one guitar follows it.(Albert)

e|-----------------|
B|-----------------|
G|-----------------|   X24
D|-----------------|
A|-----------------|
E|-0-0-3-0-6-5-3-1-|

Slides in..
Light strumming in the background.

   E   E   D   E   E     E   D   D     D   B   D

e|---|---|---|---|---| |---|---|---| |---|---|---|
B|---|---|---|---|---| |---|---|---| |---|---|---|
G|-9-|-9-|-7-|-9-|-9-| |-9-|-7-|-7-| |-7-|-4-|-7-|   X4
D|-9-|-9-|-7-|-9-|-9-| |-9-|-7-|-7-| |-7-|-4-|-7-|
A|-7-|-7-|-5-|-7-|-7-| |-7-|-5-|-5-| |-5-|-2-|-5-|
E|---|---|---|---|---| |---|---|---| |---|---|---|
______________________________________________________________________

Vocals. Just bass riff and following guitar.

e|-----------------|
B|-----------------|
G|-----------------|   X9
D|-----------------|
A|-----------------|
E|-0-0-3-0-6-5-3-1-|

Then..

   E   E   D   E   E     E   D   D     D   B   D

e|---|---|---|---|---| |---|---|---| |---|---|---|
B|---|---|---|---|---| |---|---|---| |---|---|---|
G|-9-|-9-|-7-|-9-|-9-| |-9-|-7-|-7-| |-7-|-4-|-7-|   X4
D|-9-|-9-|-7-|-9-|-9-| |-9-|-7-|-7-| |-7-|-4-|-7-|
A|-7-|-7-|-5-|-7-|-7-| |-7-|-5-|-5-| |-5-|-2-|-5-|
E|---|---|---|---|---| |---|---|---| |---|---|---|
_________________________________________________________________________

Just strummed once.

e|-6-|-5-|-3-|-1-| |---|---|---|---|
B|-6-|-6-|-3-|-1-| |---|---|---|---|
G|-7-|-7-|-3-|-2-| |---|---|---|---|   X2
D|---|---|---|---| |---|---|---|---|
A|---|---|---|---| |---|---|---|---|
E|---|---|---|---| |---|---|---|---|

At the same time, bass and following guitar are doing...

e|---------------|
B|---------------|
G|---------------|   X17
D|---------------|
A|---------------|
E|-6-6-0-1-3-4-5-|

e|-6-|-5-|-3-|-1-|
B|-6-|-6-|-3-|-1-|
G|-7-|-7-|-3-|-2-|  X1
D|---|---|---|---|
A|---|---|---|---|
E|---|---|---|---|
________________________________________________________________________

Opening riff.
Then..

Solo

e|--------12---------12---------12---------12----------|-12-|-------|
B|-11-12------11-12------11-12------11-12------12-10---|-12-|-13^14-|
G|---------------------------------------------------9-|-12-|-------|
D|-----------------------------------------------------|-12-|-------|
A|-----------------------------------------------------|----|-------|
E|-----------------------------------------------------|----|-------|


e|-10-10--------------------|-9-9--------------------|-8-8--------------------|-7-7--------------------|
B|--------10-----11-10-8----|------10-----11-10-8----|------10-----11-10-8----|------10-----11-10-8----|
G|------------9-----------9-|----------9-----------9-|----------9-----------9-|----------9-----------9-|
D|--------------------------|------------------------|------------------------|------------------------|
A|--------------------------|------------------------|------------------------|------------------------|
E|--------------------------|------------------------|------------------------|------------------------|


e|-10-10--------------------|-9-9--------------------|
B|-------10------11-10-8----|------10-----11-10-8----|
G|------------9-----------9-|----------9-----------9-|
D|--------------------------|------------------------|
A|--------------------------|------------------------|
E|--------------------------|------------------------|

While solo, 2nd guitar is doing this..bass is following..
[ Tab from: http://www.guitartabs.cc/tabs/s/strokes/juice_box_tab_ver_2.html ]
e|---|---|---|---|---| |---|---|---| |---|---|---|
B|---|---|---|---|---| |---|---|---| |---|---|---|
G|-9-|-9-|-7-|-9-|-9-| |-9-|-7-|-7-| |-7-|-4-|-7-|   X4
D|-9-|-9-|-7-|-9-|-9-| |-9-|-7-|-7-| |-7-|-4-|-7-|
A|-7-|-7-|-5-|-7-|-7-| |-7-|-5-|-5-| |-5-|-2-|-5-|
E|---|---|---|---|---| |---|---|---| |---|---|---|
_______________________________________________________________________

Vocals. Just bass riff and following guitar.

e|-----------------|
B|-----------------|
G|-----------------|  X9
D|-----------------|
A|-----------------|
E|-0-0-3-0-6-5-3-1-|

Then..

e|---|---|---|---|---| |---|---|---| |---|---|---|
B|---|---|---|---|---| |---|---|---| |---|---|---|
G|-9-|-9-|-7-|-9-|-9-| |-9-|-7-|-7-| |-7-|-4-|-7-|  X4
D|-9-|-9-|-7-|-9-|-9-| |-9-|-7-|-7-| |-7-|-4-|-7-|
A|-7-|-7-|-5-|-7-|-7-| |-7-|-5-|-5-| |-5-|-2-|-5-|
E|---|---|---|---|---| |---|---|---| |---|---|---|
______________________________________________________________________

Just strummed once.

e|-6-|-5-|-3-|-1-| |---|---|---|---|
B|-6-|-6-|-3-|-1-| |---|---|---|---|
G|-7-|-7-|-3-|-2-| |---|---|---|---|   X2
D|---|---|---|---| |---|---|---|---|
A|---|---|---|---| |---|---|---|---|
E|---|---|---|---| |---|---|---|---|


At the same time, bass and following guitar are doing...

e|---------------|
B|---------------|
G|---------------|   X17
D|---------------|
A|---------------|
E|-6-6-0-1-3-4-5-|
__________________________________________________________________

End Section..

e|-6-|-5-|-3-|-1-| |---|---|---|---|
B|-6-|-6-|-3-|-1-| |---|---|---|---|
G|-7-|-7-|-3-|-2-| |---|---|---|---|   X1
D|---|---|---|---| |---|---|---|---|
A|---|---|---|---| |---|---|---|---|
E|---|---|---|---| |---|---|---|---|

Dm
e|-5-|-5-|-5-|-x-x-x-x-|-5-|-5-|-5-|-x-x-x-x-|-5-|-5-|-5-|-x-x-x-x-|-5-|-5-|-5-|-x-x-x-x-|
B|-6-|-6-|-6-|-x-x-x-x-|-6-|-6-|-6-|-x-x-x-x-|-6-|-6-|-6-|-x-x-x-x-|-6-|-6-|-6-|-x-x-x-x-|
G|-7-|-7-|-7-|-x-x-x-x-|-7-|-7-|-7-|-x-x-x-x-|-7-|-7-|-7-|-x-x-x-x-|-7-|-7-|-7-|-x-x-x-x-|
D|-7-|-7-|-7-|-x-x-x-x-|-7-|-7-|-7-|-x-x-x-x-|-7-|-7-|-7-|-x-x-x-x-|-7-|-7-|-7-|-x-x-x-x-|
A|-5-|-5-|-5-|-x-x-x-x-|-5-|-5-|-5-|-x-x-x-x-|-5-|-5-|-5-|-x-x-x-x-|-5-|-5-|-5-|-x-x-x-x-|
E|---|---|---|---------|---|---|---|---------|---|---|---|---------|---|---|---|---------|


e|-6-|-5-|-3-|-1-| |---|---|---|---|
B|-6-|-6-|-3-|-1-| |---|---|---|---|
G|-7-|-7-|-3-|-2-| |---|---|---|---|   X1
D|---|---|---|---| |---|---|---|---|
A|---|---|---|---| |---|---|---|---|
E|---|---|---|---| |---|---|---|---|

Dm
e|-5-|-5-|-5-|-x-x-x-x-|-5-|-5-|-5-|-x-x-x-x-|-5-|-5-|-5-|-x-x-x-x-|-5-|-5-|-5-|-x-x-x-x-|
B|-6-|-6-|-6-|-x-x-x-x-|-6-|-6-|-6-|-x-x-x-x-|-6-|-6-|-6-|-x-x-x-x-|-6-|-6-|-6-|-x-x-x-x-|
G|-7-|-7-|-7-|-x-x-x-x-|-7-|-7-|-7-|-x-x-x-x-|-7-|-7-|-7-|-x-x-x-x-|-7-|-7-|-7-|-x-x-x-x-|
D|-7-|-7-|-7-|-x-x-x-x-|-7-|-7-|-7-|-x-x-x-x-|-7-|-7-|-7-|-x-x-x-x-|-7-|-7-|-7-|-x-x-x-x-|
A|-5-|-5-|-5-|-x-x-x-x-|-5-|-5-|-5-|-x-x-x-x-|-5-|-5-|-5-|-x-x-x-x-|-5-|-5-|-5-|-x-x-x-x-|
E|---|---|---|---------|---|---|---|---------|---|---|---|---------|---|---|---|---------|


e|-6-|-5-|-3-|-1-| |---|---|---|---|
B|-6-|-6-|-3-|-1-| |---|---|---|---|
G|-7-|-7-|-3-|-2-| |---|---|---|---|  X1
D|---|---|---|---| |---|---|---|---|
A|---|---|---|---| |---|---|---|---|
E|---|---|---|---| |---|---|---|---|

Dm
e|-5-|-5-|-5-|-x-x-x-x-|-5-|-5-|-5-|-x-x-x-x-|-5-|-5-|-5-|-x-x-x-x-|-5-|-5-|-5-|-x-x-x-x-|
B|-6-|-6-|-6-|-x-x-x-x-|-6-|-6-|-6-|-x-x-x-x-|-6-|-6-|-6-|-x-x-x-x-|-6-|-6-|-6-|-x-x-x-x-|
G|-7-|-7-|-7-|-x-x-x-x-|-7-|-7-|-7-|-x-x-x-x-|-7-|-7-|-7-|-x-x-x-x-|-7-|-7-|-7-|-x-x-x-x-|
D|-7-|-7-|-7-|-x-x-x-x-|-7-|-7-|-7-|-x-x-x-x-|-7-|-7-|-7-|-x-x-x-x-|-7-|-7-|-7-|-x-x-x-x-|
A|-5-|-5-|-5-|-x-x-x-x-|-5-|-5-|-5-|-x-x-x-x-|-5-|-5-|-5-|-x-x-x-x-|-5-|-5-|-5-|-x-x-x-x-|
E|---|---|---|---------|---|---|---|---------|---|---|---|---------|---|---|---|---------|

End..

The solo hasn't been finished but if anyone has any suggestions email me..
thestrokes1@hotmail.com
Comments