Strokes - Is This It Chords & Tabs

 

Is This It Chords & Tabs

Strokes Chords & Tabs

Version: 5 Type: Tab 0 ratings
1 star 2 stars 3 stars 4 stars 5 stars
comments

Is This It Tab

   
#----------------------------------PLEASE NOTE---------------------------------# 
This file is the author's own work and represents their interpretation of the 
song. You may only use this file for private study, scholarship, or research. 
#------------------------------------------------------------------------------# 


Tabbed by-Andy Ulseth, vcv75@hotmail.com
Song-"Is this it" 
Band-The Strokes
Album-"Is this it"




 this is my rendition of the song "Is this it" by The Strokes. I think this might be
the only tab on the net for a Strokes song thats not"Last night"! Here it goes!

intro/verse
[ Tab from: http://www.guitartabs.cc/tabs/s/strokes/is_this_it_tab_ver_5.html ]
e------------------------------------------------------------------------------------
b-----9---9---9---9---9---9---9---9---10---10---10---10---10---10---10---10----------
g---9---9---8---8---9---9---8---8---9----9----8----8----9----9----8----8-------------
d------------------------------------------------------------------------------------
a------------------------------------------------------------------------------------
E------------------------------------------------------------------------------------

chorus

e------------------------------------------------------------------------------------
b------5---5---5---5---5---5---5-------4---4---4---4---4---4---4---------------------
g----6---6---6---6---6---6---6---6---6---6---6---6---6---6---6---6-------------------
d--6-------------------------------4-------------------------------------------------
a------------------------------------------------------------------------------------
E------------------------------------------------------------------------------------

Bridge-

B5 E5

This is Just my rendition, no guarantees that this is 100% correct, but I think it is.
And for all of you who haven't bought the new album, go get it!
Comments