Strokes - Hard To Explain Chords & Tabs

 

Hard To Explain Chords & Tabs

Strokes Chords & Tabs

Version: 1 Type: Tab 0 ratings
1 star 2 stars 3 stars 4 stars 5 stars
comments

Hard To Explain Tab

   
Arranged for 2 guitars 1 bass 

Lead
Verse
G                      Em                                           G              D
3-3-3-3-3-3-3-2-2-2-2-2-2-2-3-3-3-3-3-3-3-----------------------------------------------------------------
3-3-3-3-3-3-3-0-0-0-0-0-0-0-3-3-3-3-3-3-3---1-3-/5------3----5---/7---5---3----5----/7---5-------------------
0-0-0-0-0-0-0-0-0-0-0-0-0-0-0-0-0-0-0-0-0----------2-------2---2-------------2----2-----------------------
----------------------------------------------------------------------------------------------------------
----------------------------------------------------------------------------------------------------------
----------------------------------------------------------------------------------------------------------


 C
----------------------------------------------------------------------------------------------------------
----------------------------------------------------------------------------------------------------------
--0—0—2—0—/4—2-----------0—0—2—0—/4—2-----------------------------------------------------------------------
----------------------------------------------------------------------------------------------------------
----------------------------------------------------------------------------------------------------------
----------------------------------------------------------------------------------------------------------

Lead
Choirs
[ Tab from: http://www.guitartabs.cc/tabs/s/strokes/hard_to_explain_tab.html ]
G                                                                  Bm                            A5                                       
-----------------------------------------------------------------------------------------------------------
--0--3—0—1—0---—0—3—0—1—0----------------------------------------------------------------------------------
---------------------------------------------------0—4—0—2—0-----0-4-0-2-0---------------------------------
-----------------------------------------------------------------------------------------------------------
-----------------------------------------------------------------------------------------------------------
-----------------------------------------------------------------------------------------------------------

Bass riff


---------------------------------------------------------------------------------------------
---------------------------------------------------------------------------------------------
---------------------------------------------------------------------------------------------
-----3-3-3-3-3-3-7-7-7-7-3-3-3-3-3-3-5-5-5-5-3-3-3-3-3-3-3-3-3-------------------------------




Intro and verse chord progression 
G Em G D5 C5  
 
Choirs
G Em Bm A5
G Em Bm A5
G G   Bm  A5
G  G   Bm  A5


Comments