Strokes - Automatic Stop Chords & Tabs

 

Automatic Stop Chords & Tabs

Strokes Chords & Tabs

Version: 2 Type: Tab 0 ratings
1 star 2 stars 3 stars 4 stars 5 stars
comments

Automatic Stop Tab

   
AUTOMATIC STOP By the Strokes
                Tabbed by Chris Brooks
                Dec. 16, 2003
                omeuris@hotmail.com



INTRO
-----
              F#                                        Bbm
E--------9--9----9--9------11--11----11--11--------9--9----9--9-------11--11----11--11--------------
B--------11-11---11-11-----11--11----11--11--------11-11---11-11------11--11----11--11--------------
G--------11-11---11-11-----11--11----11--11--------10-10---10-10------10--10----10--10--------------
D---------------------------------------------------------------------------------------------------



VERSE 1
-------
        F#             D#m
        So many fish___________________________
        C#              Fm         C# Bbm
        I wanted you___________________________
        F#                    D#m
        Thats just a phase____________________
        C#               Fm         C# Bbm
        I was a train________________________
BRIDGE
-------
       G#m                          F#
       Didn't understand________________
       G#m                    B            C#
       Then I got_________________________you

RIFF OVER VERSE CHORDS
----------------------

           F#         D#m         C#             Fm  C#   Bbm
D--------------10---8---------------------8---10------------------------------------------
A---9-------------------9--8-----------------------8----9----------REPEAT
E----------------------------------------------------------------------------------------
[ Tab from: http://www.guitartabs.cc/tabs/s/strokes/automatic_stop_tab_ver_2.html ]
CHORUS
------
  
      F#       C#                      D#m
      Wait_______________________________
      D#m         G#                 B
      I'm not you friend______________       REPEAT CHORUS    


   

LEAD OVER CHORUS
----------------

LEAD OVER CHORUS
----------------
            F#                   C#                   D#m             D#m              G#m                 B
      
      B-----11-------------------9--------------------7---------------7----------------9-------------------9------------

      G-------------11------------------10------------------8---------------8---------------11-----------------11-------
                                                                                                                     REPEAT
      A---------11-----------------11--------------------8---------------8---------------10------------------9----------

      D-----------------------------------------------------------------------------------------------------------------

REPEAT VERSE
-------------

BRIDGE
--------
       
(Yeah, I know ect.)

REPEAT CHORUS
-------------         (END)


Also, the "reggae" chords for the verse and bridge:

                F#            D#m                   C#              Fm   C#    Bbm
E--------9-------------11--------------------9---------------9--------------
B--------11------------11--------------------11--------------11-------------
G--------11------------11--------------------10--------------10------------- 
D--------------------------------------------------------------------------- 

Bridge:
             G#m         F#           G#m        B            C#
E-----11----------9------------11---------11-----------9--------------------
B-----12----------11-----------12---------12-----------9-------------------- 
G-----13----------11-----------13---------11-----------10-------------------
D-----------------------------------------13--------------------------------



 +       Until Next Time...    
Comments