Strokes - Alone Together Chords & Tabs

 

Alone Together Chords & Tabs

Strokes Chords & Tabs

Version: 2 Type: Tab 0 ratings
1 star 2 stars 3 stars 4 stars 5 stars
comments

Alone Together Tab

the beginning of this song is correct from the other tab thats on here, but it doesnt continue through the whole song, there's lots of other things. 
   i do really crappy jobs on staffs so they may be really messed up, but im trying my luck
   the intro:

-------------------------------
--0-0------7-7-5-7-------------
---------7---------------------  (repeated)
------5------------------------
-------------------------------
-------------------------------

this is with the bass on guitar if you wanna play it together (not much of a difference):


-------------------------------
--0-0------7-7-5-7-------------
---------7-----5-7-------------  
------5------------------------
-------------------------------
-------------------------------


then (chords of):
[ Tab from: http://www.guitartabs.cc/tabs/s/strokes/alone_together_tab_ver_2.html ]
-----------------------
--11--12--9------------
-----------------------
-----------------------
-----------------------
-----------------------

(those two are repeated throughout the song..that whole verse thing..)

then before the chorus:

---13-----------------
-----15---------------


i cant get the part before the 'solo' because the bass is too strong and i cant hear the exact but the 'solo' is:

--13-16-13-16-13-16-13-16-13--10-13-10-13-10-13-10-13-10---  (a string)

and im pretty sure thats wrong, but my guitars out of tune so i cant get anything exact really, but work from it, have some fun.
its a really awesome song and its fun, especially the intro.
 the strokes are awesome. if you dont have their cd already, go buy it. and while your out pick up alkaline trio. 
  
   email me with any corrections --  fender1245@msn.com

    
 third friday rules. 

Comments