Strokes - Alone Together Chords & Tabs

 

Alone Together Chords & Tabs

Strokes Chords & Tabs

Version: 1 Type: Tab 0 ratings
1 star 2 stars 3 stars 4 stars 5 stars
comments

Alone Together Tab

   
#----------------------------------PLEASE NOTE---------------------------------#
#This file is the author's own work and represents their interpretation of the #
#song. You may only use this file for private study, scholarship, or research. #
#------------------------------------------------------------------------------#

Alone Together – The Strokes


INTRO     

FIRST GUITAR


Repeat that part 2 times
  Am
e---------------------------------
B-----1---------------1-----------
G-------2---------------2---------
D---------2-2-0-2---------2-2-0-2-
A-0-0-------------0-0-------------
E---------------------------------


And then


VERSES


The second guitar plays the chords like that during all the parts EXCEPT when there's a star after the Am, in that case only the first guitar play. The first guitar play only the main riff (like the intro)  and only on the Am..



CHORUS


FIRST GUITAR


  Am              B#m
e-------------------------------
B-------------------------------
G----------------------7--------
D-7-7-9------------9-9----------
A-------10--10-10--------9--9-9-
E-------------------------------



SECOND GUITAR



BREAK

Like the intro (first guitar)

VERSE
(People tried.ect). ..

TRANS (just first guitar)

e-5-5-5-8-8-8-
B-5-5-5-8-8-8-

BRIDGE
(He knows it's justified to kill to survive ect)


CHORUS
(I am with you ect).
[ Tab from: http://www.guitartabs.cc/tabs/s/strokes/alone_together_tab.html ]
SOLO
  Am    C       B       C      
e-3-3-4-5-5-5-5-8-8-8-8-7-7-7-7-8-8-8-8-5-5-5-5-8-8-8-8-7-7-7-7-8---8--
B-3-3-4-5-5-5-5-8-8-8-8-7-7-7-7-8-8-8-8-5-5-5-5-8-8-8-8-7-7-7-7---7----
G----------------------------------------------------------------------
D----------------------------------------------------------------------
A----------------------------------------------------------------------
E----------------------------------------------------------------------

e--3--3--3--3----------------------3--3--3--3------10-10-10-10--
B-5--5--5--5--5----3--3--3--3-----5--5--5--5--5---8--8--8--8--8-
G-----------------5--5--5--5--5---------------------------------
D---------------------------------------------------------------
A---------------------------------------------------------------
E---------------------------------------------------------------

(Play that part like the beginning of the solo)


(The first time, it happened too fast ect)

  D   Am+
e-10--17-
B-10--17-

OUTRO

e-17-15-------------5-4-3-------
B------17--17-15----------5-4-3-
G---------------17--------------
D-------------------------------
A-------------------------------
E-------------------------------


End with the same part as the intro






---------------------------------------------------------------------
----------------------------------END--------------------------------
---------------------------------------------------------------------


CHORDS USED

    G    F   Am   B#m   Am   C   D
e---3----1----0----2----5----3---5---
B---3----1----1----3----5----5---7---
G---4----2----2----4----5----5---7---
A---5----3----2----4----7----5---7---
D-----------------------7----3---5---
E-----------------------5----3---5---


this is for 2 guitars btw

submitted by nick walton
Comments