Strokes - Alone Together Chords & Tabs

 

Alone Together Chords & Tabs

Strokes Chords & Tabs

Version: 3 Type: Bass Tab 0 ratings
1 star 2 stars 3 stars 4 stars 5 stars
comments

Alone Together Bass Tab

Alone, Together -  The Strokes (Bass Tabs)
----------------------------------------------------------------------------

Intro:
G|--------------------------------|
D|--------------------------------|  x 2
A|--0-0---7-7-5-7--0-0---7-7-5-7--|
E|--------------------------------|

Rhythm:
G|------------------------------|
D|--3-3---3---------------------|
A|-----------3-3---3---5-5---5--|
E|------------------------------|
"No choice now, it's too late"

G|--------------------------------|
D|--------------------------------|  
A|--0-0---7-7-5-7--0-0---7-7-5-7--|
E|--------------------------------|

G|------------------------------|
D|--3-3---3---------------------|
A|-----------3-3---3---5-5---5--|
E|------------------------------|
"Let him go, he gave up"
 
G|--------------------------------|
D|--------------------------------|  x 2
A|--0-0---7-7-5-7--0-0---7-7-5-7--|
E|--------------------------------|
"I gave up"

G|-----------------------------------------------------------------|
D|--5-5---5---3-3---3----------------------------------------------|
A|---------------------3-3---3-----3-3---3----5-5---5-----5-5---5--|
E|-----------------------------------------------------------------|
  "Lisa said take time for me, dropping him down to his...

Note: this is played twice as long ^
G|--------------------------------|
D|--------------------------------|  x 2
A|--0-0---7-7-5-7--0-0---7-7-5-7--|
E|--------------------------------|
"Ah, chest down... "

Chorus: Easier than it sounds
G|---------------------------------------------------------------------|
D|---------7-7-7-7--5-5-5-5--------------------------------------------|x4 
A|--------------------------7-7-7-7--5-5-5-5-5-5-5-5-------------------|  
E|-5-5-5-5-------------------------------------------8-8-8-8--5-5-5--3-|
"Take me away, see I've got to explain"
"Things they are changing such a permanent way"
"Life seems unreal, can we go back to your place"
"Ah you drink too much, makes me drink just the same"
[ Tab from: http://www.guitartabs.cc/tabs/s/strokes/alone_together_btab_ver_3.html ]
G|--------------------------------|
D|--------------------------------|  x 2
A|--0-0---7-7-5-7--0-0---7-7-5-7--|
E|--------------------------------|

G|------------------------------|
D|--3-3---3---------------------|
A|-----------3-3---3---5-5---5--|
E|------------------------------|
"People try, felt so right"



G|--------------------------------|
D|--------------------------------|  x 2
A|--0-0---7-7-5-7--0-0---7-7-5-7--|
E|--------------------------------|

G|-----------------------------------------------------------------|
D|--5-5---5---3-3---3----------------------------------------------|
A|---------------------3-3---3-----3-3---3----5-5---5-----5-5---5--|
E|-----------------------------------------------------------------|
"Giving themselves good advice, looking down sometimes felt nice"

G|--------------------------------|
D|--------------------------------|  x 2
A|--0-0---7-7-5-7--0-0---7-7-5-7--|
E|--------------------------------|

G|-----------------------------------|
D|-----------------------------------|  x4
A|--0-0-0-0-0-0-3-4-5-5-5-5-5-5-5-3--|
E|-----------------------------------|
"He knows it's just a fact to kill to survive" 
"He's earning dollars when you're giving your life"
"Let someone poor soul work 3 hours a day"
"The world is over and I don't care coz"

Chorus:
G|-----------------------------------------------------------------------|
D|----------7-7-7-7--5-5-5-5---------------------------------------------| x4 
A|---------------------------7-7-7-7--5-5-5-5-5-5-5-5--------------------|  
E|--5-5-5-5-------------------------------------------8-8-8-8--5-5-5--3--|
"I am with you, see I've got to explain"
"Things they are changing such a permanent way"
"Life seems unreal, can we go back to your place"
"You drink too much, makes me drink just the same"

Solo: Nothing for four bars.
G|-----------------------------------|
D|-----------------------------------|  x8
A|--0-0-0-0-0-0-3-4-5-5-5-5-5-5-5-3--|
E|-----------------------------------|

"On the first time that I met your friends"
"A second time I thought it would last" 
"We all like it a little different"
				     
G|-------------------------------------|
D|-------------------------------------|
A|--0-0---7-7-5-7---0-0---7-7-5-7---0~-|
E|-------------------------------------|
Comments