Strokes - Alone Together Chords & Tabs

 

Alone Together Chords & Tabs

Strokes Chords & Tabs

Version: 2 Type: Bass Tab 0 ratings
1 star 2 stars 3 stars 4 stars 5 stars
comments

Alone Together Bass Tab

   
Tabbed By : ChrKr
e-mail: chrkr@gmx.at

Tuning: Standard


Verse
  A       E         A       E       G  A
G|----------------------------------12-14-|
D|--------14-14-------------14-14---------|
A|12-12-------------12-12-----------------|   x2
E|----------------------------------------|


  F                   C                  D
G|--------------------------------------|------------------|
D|15-----15---15-15---------------------|12-----12---12-12-|
A|--------------------15-----15---15-15-|------------------|
E|--------------------------------------|------------------|


  A       E         A       E       G  A
G|----------------------------------12-14-|
D|--------14-14-------------14-14---------|
A|12-12-------------12-12-----------------|
E|----------------------------------------|


  F                   C                  D
G|--------------------------------------|------------------|
D|15-----15---15-15---------------------|12-----12---12-12-|
A|--------------------15-----15---15-15-|------------------|
E|--------------------------------------|------------------|


  A       E         A       E       G  A
G|----------------------------------12-14-|
D|--------14-14-------------14-14---------|
A|12-12-------------12-12-----------------|   x2
E|----------------------------------------|


  F                                      C
G|--------------------------------------|----------------------------------|
D|15-----15---15-15---15-----15---15-15-|----------------------------------|
A|--------------------------------------|15----15--15-15---15----15--15-15-|
E|--------------------------------------|----------------------------------|


  D
G|--------------------------------------|
D|12-----12---12-12---12-----12---12-12-|
A|--------------------------------------|
E|--------------------------------------|



  A       E         A       E       G  A
G|----------------------------------12-14-|
D|--------14-14-------------14-14---------|
A|12-12-------------12-12-----------------|   x2
E|----------------------------------------|


Chorus
[ Tab from: http://www.guitartabs.cc/tabs/s/strokes/alone_together_btab_ver_2.html ]
  A           A           G           E
G|------------14-14-14-14-12-12-12-12-------------|
D|------------------------------------14-14-14-14-|
A|12-12-12-12-------------------------------------| \
E|------------------------------------------------|  \
                                                      2x
  D           D           C           A        G     /     
G|------------------------------------------------| /
D|------------12-12-12-12-10-10-10-10-------------|
A|------------------------------------12-12-12-10-|
E|10-10-10-10-------------------------------------|


  A           A           G           E
G|------------14-14-14-14-12-12-12-12-------------|
D|------------------------------------14-14-14-14-|
A|12-12-12-12-------------------------------------| \ 
E|------------------------------------------------|  \
                                                      1x
  D           D           C           A     G        /
G|------------------------------------------------| /
D|------------12-12-12-12-10-10-10-10-------------|
A|------------------------------------12-12-10-10-|
E|10-10-10-10-------------------------------------|



  A           A           G           E
G|------------14-14-14-14-12-12-12-12-------------|
D|------------------------------------14-14-14-14-|
A|12-12-12-12-------------------------------------| \
E|------------------------------------------------|  \
                                                      1x
  D           D           C           A        G     /     
G|------------------------------------------------| /
D|------------12-12-12-12-10-10-10-10-------------|
A|------------------------------------12-12-12-10-|
E|10-10-10-10-------------------------------------|


Verse again


After that:
 A       E         A       E       G  A
G|----------------------------------12-14-|
D|--------14-14-------------14-14---------|
A|12-12-------------12-12-----------------|   x2
E|----------------------------------------|


Comes "The Bridge":
  A           C C# D             C
G|----------------|----------------|
D|----------------|----------------|
A|0-0-0-0-0-0-3-4-|5-5-5-5-5-5-5-3-|  x3
E|----------------|----------------|


  A           C C# D             G
G|----------------|-----------------|
D|----------------|-----------------|
A|0-0-0-0-0-0-3-4-|5-5-5-5-5-5-5-10-|  
E|----------------|-----------------|


Chorus Again like above

Pause (4 times)

Shortly before the guitar plays the solo, Bass slides down from appr.
7th fret down to 0, continued by playing "Bridge" again (7 times),

8th time:


  A           C C# D             C  A        E       A       E       G  A
G|----------------|----------------|---------------------------------12-14-|
D|----------------|----------------|---------14-14-----------14-14---------|
A|0-0-0-0-0-0-3-4-|5-5-5-5-5-5-5-3/|12-12------------12-12-----------------|
E|----------------|----------------|---------------------------------------|

G|--|
D|--|
A|12| let ring
E|--|

| /  slide up
| \  slide down
| h  hammer-on
| p  pull-off
| ~  vibrato
| +  harmonic
| x  Mute note
============================================================================
Comments