Strokes - 12 51 Chords & Tabs

 

12 51 Chords & Tabs

Strokes Chords & Tabs

Version: 9 Type: Tab 0 ratings
1 star 2 stars 3 stars 4 stars 5 stars
comments

12 51 Tab

The Strokes
12:51
Room On Fire
by: Francis Jimenez
-Standard Tuning-

Intro:
Guitar first(one, uno, whatever)
|-7~----------7~----------4~------------|
|-9~----------9~----------5~------------|
|-9~----------9~----------4~------------|
|---------------------------------------|
|---------------------------------------|
|---------------------------------------|

|-5-------4-------5-------4-------------|
|-5-------5-------5-------5-------------|
|-5-(x16)-4-(x16)-5-(x16)-4-(x16)-------|
|-7-------6-------7-------6-------------|
|---------------------------------------|
|---------------------------------------|


Verse:
Guitar first
|---------------------------------------|
|---------------------------------------|
|----------------------------4----------|(x2)
|-2--(x8)--7--(x8)--4--(x8)--4--(x8)----|
|-2--------7--------4--------2----------|
|-0--------5--------2-------------------|


guitar second
|-------------------------------------------------------|
|-------------------------------------------------------|
|-13------------13-----------16-------------------------|(x2)
|-----14-16--14----16---14-------13-14--13-16-14---13---|
|-------------------------------------------------------|
|-------------------------------------------------------|


Chorus:
guitar first
|------------------------------|
|------------------------------|
|-9--------6--------4----------|(x4)
|-9--(x8)--6--(x4)--4--(x4)----|
|-7--------4--------2----------|
|------------------------------|

guitar second
|-------------------------------------------------------|
|-12-----------12-----------12--------------------------|
|-----13-11-13-----13-11-13-----13-11-13------13-11-13--|
|-----------------------------------------14------------|
|-------------------------------------------------------|
|-------------------------------------------------------|

|-------------------------------------------------------|
|-12-----------12-----------12--------------------------|
|-----13-11-13-----13-11-13-----13-11-13------13-11-----|
|-----------------------------------------14--------14--|
|-------------------------------------------------------|
|-------------------------------------------------------|

Verse II:
guitar first
|---------------------------------------|
|---------------------------------------|
|----------------------------4----------|(x2)
|-2--(x8)--7--(x8)--4--(x8)--4--(x8)----|
|-2--------7--------4--------2----------|
|-0--------5--------2-------------------|

guitar second
|-------------------------------------------------------|
|-------------------------------------------------------|
|-13------------13-----------16-------------------------|
|-----14-16--14----16---14-------13-14--13-16-14---13---|
|-------------------------------------------------------|
|-------------------------------------------------------|

|-------------------------------------------------------|
|-------------------------------------------------------|
|-13------------16-14---13------------------------------|
|-----14-16--14--------------16--13-14--13-16-14---13---|
|-------------------------------------------------------|
|-------------------------------------------------------|

Chorus:
guitar first
|------------------------------|
|------------------------------|
|-9--------6--------4----------|(x4)
|-9--(x8)--6--(x4)--4--(x4)----|
|-7--------4--------2----------|
|------------------------------|
[ Tab from: http://www.guitartabs.cc/tabs/s/strokes/12_51_tab_ver_9.html ]
guitar second
|-------------------------------------------------------|
|-12-----------12-----------12--------------------------|
|-----13-11-13-----13-11-13-----13-11-13------13-11-13--|
|-----------------------------------------14------------|
|-------------------------------------------------------|
|-------------------------------------------------------|

|-------------------------------------------------------|
|-12-----------12-----------12--------------------------|
|-----13-11-13-----13-11-13-----13-11-13------13-11-----|
|-----------------------------------------14--------14--|
|-------------------------------------------------------|
|-------------------------------------------------------|

Bridge:
guitar first
|-5-------4-------5-------4-------------|
|-5-------5-------5-------5-------------|
|-5-(x16)-4-(x16)-5-(x16)-4-(x16)-------|(x4)
|-7-------6-------7-------6-------------|
|---------------------------------------|
|---------------------------------------|

guitar second
|----------------12----------------------------12------------|
|-13-15-12-13-------15-13-12----13-15-12-13-------15-13-12---|
|------------------------------------------------------------|
|------------------------------------------------------------|
|------------------------------------------------------------|
|------------------------------------------------------------|

|-12----------------------------12---------------------------12-----------|
|-------15-13-12-------15----------15-13-12---13-15-12-13-------15-13-12~-|
|----14-------------14----16----------------------------------------------|
|----------------14-------------------------------------------------------|
|-------------------------------------------------------------------------|
|-------------------------------------------------------------------------|


verse III:
guitar first
|---------------------------------------|
|---------------------------------------|
|----------------------------4----------|(x4)
|-2--(x8)--7--(x8)--4--(x8)--4--(x8)----|
|-2--------7--------4--------2----------|
|-0--------5--------2-------------------|

guitar second
|-------------------------------------------------------|
|-------------------------------------------------------|
|-13------------13-----------16-------------------------|(x2)
|-----14-16--14----16---14-------13-14--13-16-14---13---|
|-------------------------------------------------------|
|-------------------------------------------------------|

|-------------------------------------------------------|
|-------------------------------------------------------|
|-13------------16-14---13------------------------------|(x2)
|-----14-16--14--------------16--13-14--13-16-14---13---|
|-------------------------------------------------------|
|-------------------------------------------------------|

chorus:
guitar first
|------------------------------|
|------------------------------|
|-9--------6--------4----------|(x4)
|-9--(x8)--6--(x4)--4--(x4)----|
|-7--------4--------2----------|
|------------------------------|

guitar second
|-------------------------------------------------------|
|-12-----------12-----------12--------------------------|
|-----13-11-13-----13-11-13-----13-11-13------13-11-13--|
|-----------------------------------------14------------|
|-------------------------------------------------------|
|-------------------------------------------------------|

|-------------------------------------------------------|
|-12-----------12-----------12--------------------------|
|-----13-11-13-----13-11-13-----13-11-13------13-11-----|
|-----------------------------------------14--------14--|
|-------------------------------------------------------|
|-------------------------------------------------------|

Ending:
guitar first
|-4~------------4--|
|-5~------------5--|
|-4~------------4--|
|-6~---------------|
|------------------|
|------------------|
Comments