Strokes - 12 51 Chords & Tabs

 

12 51 Chords & Tabs

Strokes Chords & Tabs

Version: 6 Type: Tab 0 ratings
1 star 2 stars 3 stars 4 stars 5 stars
comments

12 51 Tab

   
-------------
12:51-The Strokes
-------------
Tabbed By: Thomas Xu
tuning:standard

Hey guys, this is their new single off "Room On Fire."  This is my 1st submitted
tab so take it easy if it's not complicated.  The song has 2 guitars, and I
decided to pick out most of the synthesized guitar part and combine with the
second guitar part {10(x16)-9(x16)}.  Someone can probably tab the rhythm part
later.  The tab here sounds correct to me, so enjoy.

e|------------------------------------0--0-----------------------
B|9(ring)-10(x16)-9(x16)-(both x2)9--7--9-7-5-7-4-5-4-7-5-4-(x2) 
G|---------------------------------------------------------------
D|---------------------------------------------------------------
A|---------------------------------------------------------------
E|---------------------------------------------------------------


e|-7------7-------7-------0---------------------------------          
B|--9-7-9---9-7-9---9-7-9---9-7-9-(X2)-second time end on 5, not 9 
G|----------------------------------------------------------
D|----------------------------------------------------------
A|----------------------------------------------------------
E|----------------------------------------------------------
[ Tab from: http://www.guitartabs.cc/tabs/s/strokes/12_51_tab_ver_6.html ]
e|---0--0-------------------------0---0-7-5-4---------------
B|-9--7--9-7-5-7-4-5-4-7-5-4----9---7---------7-4-5-4-7-5-4
G|----------------------------------------------------------
D|----------------------------------------------------------
A|----------------------------------------------------------
E|----------------------------------------------------------


e|-7------7-------7-------0---------------------------------          
B|--9-7-9---9-7-9---9-7-9---9-7-9-(X2)-second time end on 5, not 9 
G|----------------------------------------------------------
D|----------------------------------------------------------
A|----------------------------------------------------------
E|----------------------------------------------------------

e|----------------------------------------------------------
B|-10(X16)-9(X16)-(both x2)---------------------------------
G|----------------------------------------------------------
D|----------------------------------------------------------
A|----------------------------------------------------------
E|----------------------------------------------------------

e|---0--0----------------------------0---0-7-5-4------------------
B|-9--7--9-7-5-7-4-5-4-7-5-4-(x2}--9---7---------7-4-5-4-7-5-4-(x2) 
G|----------------------------------------------------------------
D|----------------------------------------------------------------
A|----------------------------------------------------------------
E|----------------------------------------------------------------

e|-7------7-------7-------0---------------------------------          
B|--9-7-9---9-7-9---9-7-9---9-7-9-(X2)-second time end on 5, not 9 
G|----------------------------------------------------------
D|----------------------------------------------------------
A|----------------------------------------------------------
E|----------------------------------------------------------

e|----
B|-9-9
G|----  end
D|----
A|----
E|----
Comments