Strokes - 12 51 Chords & Tabs

 

12 51 Chords & Tabs

Strokes Chords & Tabs

Version: 2 Type: Tab 0 ratings
1 star 2 stars 3 stars 4 stars 5 stars
comments

12 51 Tab

   
Strokes - 12:51

by Victor - victorpires@ig.com.br, é nóis na fita

Intro:
   E
   up   up   down
e|-7~~--7~~----
B|-9~~--9~~--9~~-
G|-9~~--9~~--9~~-
D|-----------9~~-

E|-5555555544444444-
B|-5555555555555555- x2
G|-4444444444444444-


Verse 1:
   E         A      F#m     B       
B|-9---7---9-7------7-------7------ x2
G|---9---9-----9------8-9-8---9-8--

Riff:
   E            C#m  B     E         C#m  B
B|-12-9----9--12--9-----9--12-9----9---9---- x2
G|------11-----------11---------11---9---11-

[ Tab from: http://www.guitartabs.cc/tabs/s/strokes/12_51_tab_ver_2.html ]
Verse 2:
   E         A      F#m     B       E          A     F#m     B
B|-9---7---9-7------7-------7-------9---7---12-10-9--7-------7------
G|---9---9-----9------8-9-8---9-8-----9---9------------8-9-8---9-8--

Riff:
   E            C#m  B     E         C#m  B
B|-12-9----9--12--9-----9--12-9----9---9---- x2
G|------11-----------11---------11---9---11-


Chorus:
   E
E|-5555555544444444-
B|-5555555555555555- x4
G|-4444444444444444-

Verse 3:
   E         A      F#m     B       
B|-9---7---9-7------7-------7------ x2
G|---9---9-----9------8-9-8---9-8--

Verse 4:
    E          A     F#m     B
B|--9---7---12-10-9--7-------7------ x2
G|----9---9------------8-9-8---9-8--

Riff
   E            C#m  B     E         C#m  B
B|-12-9----9--12--9-----9--12-9----9---9---- x2
G|------11-----------11---------11---9---11-

End:
B|-9~~--9-
G|-9~~--9-
Comments