Strokes - 12 51 Chords & Tabs

 

12 51 Chords & Tabs

Strokes Chords & Tabs

Version: 13 Type: Tab 0 ratings
1 star 2 stars 3 stars 4 stars 5 stars
comments

12 51 Tab

12:51- The Strokes
Tabbed by:foo_benyiri (ese don)
This tab is easier to play than the other tabs here. And I tried to be more specific.It 
perfect, just try it.
Tuning:EADGBe(Standard)

Intro: Guitar 1

e|-12-----------4----------------5--------4--------5--------4----------|
B|---12-(x2)----5-(let ring)-----5-(x16)--5-(x16)--5-(x16)--5-(x16)----|
G|-----9--------4----------------5--------4--------5--------4----------|
D|---------------------------------------------------------------------|
A|---------------------------------------------------------------------|
E|---------------------------------------------------------------------|

Verse: Guitar 1

e|----------------------------------------------|
B|----------------------------------------------|
G|----------------------------------------------|
D|-2-------7-------4-------9--------------------|  x2
A|-2-(x8)--7-(x8)--4-(x8)--9--(x8)--------------|
E|-0-------5-------2-------7--------------------|

Verse: Guitar 2

e|-4-------4--------------------------------------|
B|---5-7-5---7-5----7-7-4-5-4-7-5-4---------------|
G|------------------------------------------------| x2
D|------------------------------------------------|
A|------------------------------------------------|
E|------------------------------------------------|

Bridge: Guitar 1

e|----------------------------------------------|
B|----------------------------------------------|
G|-9-------6-------4----------------------------|
D|-9-(x8)--6-(x4)--4-(x4)-----------------------|  x4
A|-7-------4-------2----------------------------|
E|----------------------------------------------|

Bridge: Guitar 2

e|-7-4---4---7-4---4---7-4---4----4---4-------------------------|
B|-----7---------7---------7----5---7---------------------------|
G|--------------------------------------------------------------| x2 (but the
D|--------------------------------------------------------------|     second time
A|--------------------------------------------------------------|   just end on:
E|---------------------------------------    B|-5, not on e|-4)-|

Verse 2: Guitar 1- Same as verse 1

Verse 2: Guitar 2.Just a little variation.
[ Tab from: http://www.guitartabs.cc/tabs/s/strokes/12_51_tab_ver_13.html ]
e|-4-------4-------------------------4-4-4-------7-5-4-------------------|
B|---5-7-5---7-5-----7-4-5-4-7-5-4---------5-7-5--------7-7-4-5-4-7-5-4--|
G|-----------------------------------------------------------------------|
D|-----------------------------------------------------------------------|
A|-----------------------------------------------------------------------|
E|-----------------------------------------------------------------------|

Then samen bridge to Chorus

Chorus: "12:51 is the time my voice found...."
Guitar 1

e|-5--------4--------5--------4----------|
B|-5-(x16)--5-(x16)--5-(x16)--5-(x16)----|
G|-5--------4--------5--------4----------| x2
D|---------------------------------------|
A|---------------------------------------|
E|---------------------------------------|

Chorus: Guitar 2 (Part 1)

e|------------------------------------|
B|-13-15--12-13--------17-15----------|
G|----------------------------17-16---|  x2
D|------------------------------------|
A|------------------------------------|
E|------------------------------------|

Then play this on "..the world is shutting out"

e|------------------------------|
B|-17---13-15-12-------15-12----|
G|------------------14----------|
D|---14----------14-------------|
A|------------------------------|
E|------------------------------|

e|------------------------------------|
B|-13-15--12-13--------17-15----------|
G|----------------------------17-16---|
D|------------------------------------|
A|------------------------------------|
E|------------------------------------|

Verse 3. Same as Verse 2 on both guitars

Last Verse: Guitar 1. Same as verse 1.

Last Verse: Guitar 2

e|-4-------7-5-4-----------------4-4-4-------7-5-4------------------|
B|---5-7-5--------7-4-5-4-7-5-4--------5-7-5-------7-7-4-5-4-7-5-4--|
G|------------------------------------------------------------------|
D|------------------------------------------------------------------|
A|------------------------------------------------------------------|
E|------------------------------------------------------------------|

Finally both Guitars play Bridge.

And Guitar 1 end on:

e|-4--------4------------|
B|-5--------5------------|
G|-4--------4------------|
D|-----------------------|
A|-----------------------|
E|-----------------------|

You can listen to the song at www.thestokes.com. Enjoy It.
Comments