Strokes - 12 51 Lead Chords & Tabs

 

12 51 Lead Chords & Tabs

Strokes Chords & Tabs

Version: 1 Type: Tab 0 ratings
1 star 2 stars 3 stars 4 stars 5 stars
comments

12 51 Lead Tab

12 51 by the strokes


------------------------------------------------------
--9--5--7--5--9--7~~ --5~~ --7--4--5--4--7-- 5~~ 4~~
------------------------------------------------------
------------------------------------------------------  x2
------------------------------------------------------
------------------------------------------------------

---------------------------------------------------------
--12--9--7--9--12~~ 9~~ 7~~ 9~~  12--9--7--9--5--9--7--9-
---------------------------------------------------------
---------------------------------------------------------
---------------------------------------------------------  x2
---------------------------------------------------------
[ Tab from: http://www.guitartabs.cc/tabs/s/strokes/12_51_lead_tab.html ]
------------------------------------------------------
--9--5--7--5--9--7~~ --5~~ --7--4--5--4--7-- 5~~ -- 4~~
------------------------------------------------------
------------------------------------------------------
------------------------------------------------------
------------------------------------------------------

------------------------------------------------------
--9--5--7--5--12--10~~ 9~~ 7--4--5--4--7--5--4--------
------------------------------------------------------
------------------------------------------------------
------------------------------------------------------
------------------------------------------------------

---------------------------------------------------------
--12--9--7--9--12~~ 9~~ 7~~ 9~~  12--9--7--9--5--9--7--9-
---------------------------------------------------------
---------------------------------------------------------
---------------------------------------------------------  x2
---------------------------------------------------------

it goes on from there i think you can handle it any questions email me at never_blink@hotmail.com
Comments