Strokes - 12 51 Chords & Tabs

 

12 51 Chords & Tabs

Strokes Chords & Tabs

Version: 4 Type: Bass Tab 0 ratings
1 star 2 stars 3 stars 4 stars 5 stars
comments

12 51 Bass Tab

   
Song - 12:51
Artist - The Strokes
Album - Room On Fire
Bassist - Nikolai Fraiture

Tuning - regular

This is very easy to be played but it's however a cool song. you can play it on 1st fret
but it's easier playing it just like this:

intro
G|-----------------|
D|-----------------|
A|-7-7-7-7-7-7-7-7-| [x6]
E|-----------------|

riff #1
G|-----------------|-----------------|-----------------|-----------------|
D|-----------------|-----------------|-----------------|-----------------|
A|-----------------|-----------------|-7-7-7-7-7-7-7-7-|-7-7-7-7-7-7-7-7-| [x2]
E|-8-8-8-8-8-8-8-8-|-8-8-8-8-8-8-8-8-|-----------------|-----------------| 
[ Tab from: http://www.guitartabs.cc/tabs/s/strokes/12_51_btab_ver_4.html ]
verse
G|-----------------|-----------------|-----------------|-----------------|
D|-----------------|-----------------|-----------------|-----------------|
A|-7-7-7-7-7-7-7-7-|-0-0-0-0-0-0-0-0-|-9-9-9-9-9-9-9-9-|-----------------| [x2]
E|-----------------|-----------------|-----------------|-7-7-7-7-7-7-7-7-|

riff#2
G|-----------------|-----------------|
D|-----------------|-----------------|
A|-7-7-7-7-7-7-7-7-|-----------------| [x4]
E|-----------------|-9-9-9-9-7-7-7-7-|

repeat verse [x2] and riff #2 [x4]

riff #1
G|-----------------|-----------------|-----------------|-----------------|
D|-----------------|-----------------|-----------------|-----------------|
A|-----------------|-----------------|-7-7-7-7-7-7-7-7-|-7-7-7-7-7-7-7-7-| [x4]
E|-8-8-8-8-8-8-8-8-|-8-8-8-8-8-8-8-8-|-----------------|-----------------| 

again verse [x4] and riff #2 [x4]

end
G|-----------------|-----------------|
D|-----------------|-----------------|
A|-7-7-7-7-7-7-7-7-|-7-7-7-7-7-------|
E|-----------------|-----------------|
Comments