Strokes - 12 51 Chords & Tabs

 

12 51 Chords & Tabs

Strokes Chords & Tabs

Version: 3 Type: Bass Tab 0 ratings
1 star 2 stars 3 stars 4 stars 5 stars
comments

12 51 Bass Tab

Song: 12:51
Hell of a Good Band
BYE: STONER,SCHurr

Intro: 6x
G|-------------------|
D|-2-2-2-2-2-2-2-2---|
A|-------------------|
E|-------------------|
Bridge:2x
G|-----------------|---------------|----------------|---------------|
D|-----------------|---------------|2-2-2-2-2-2-2-2-|2-2-2-2-2-2-2-2|
A|-3-3-3-3-3-3-3-3-|3-3-3-3-3-3-3-3|----------------|---------------|
E|-----------------|---------------|----------------|---------------
[ Tab from: http://www.guitartabs.cc/tabs/s/strokes/12_51_btab_ver_3.html ]
Verse:2x
G|-----------------|---------------|----------------|---------------|
D|-2-2-2-2-2-2-2-2-|---------------|3-3-3-3-3-3-3-3-|---------------|
A|-----------------|0-0-0-0-0-0-0-0|----------------|2-2-2-2-2-2-2-2|
E|-----------------|---------------|----------------|---------------|
Chorus:2x
G|-----------------|---------------|
D|-2-2-2-2-2-2-2-2-|---------------|
A|-----------------|4-4-4-2-2-2----|
E|-----------------|---------------|
Verse:2x
G|-----------------|---------------|----------------|---------------|
D|-2-2-2-2-2-2-2-2-|---------------|3-3-3-3-3-3-3-3-|---------------|
A|-----------------|0-0-0-0-0-0-0-0|----------------|2-2-2-2-2-2-2-2|
E|-----------------|---------------|----------------|---------------|
Chorus:4x
G|-----------------|---------------|
D|-2-2-2-2-2-2-2-2-|---------------|
A|-----------------|4-4-4-2-2-2----|
E|-----------------|---------------|
Bridge:4x
G|-----------------|---------------|----------------|---------------|
D|-----------------|---------------|2-2-2-2-2-2-2-2-|2-2-2-2-2-2-2-2|
A|-3-3-3-3-3-3-3-3-|3-3-3-3-3-3-3-3|----------------|---------------|
E|-----------------|---------------|----------------|---------------|
Verse:4x
G|-----------------|---------------|----------------|---------------|
D|-2-2-2-2-2-2-2-2-|---------------|3-3-3-3-3-3-3-3-|---------------|
A|-----------------|0-0-0-0-0-0-0-0|----------------|2-2-2-2-2-2-2-2|
E|-----------------|---------------|----------------|---------------|
Chorus:4x
G|-----------------|---------------|
D|-2-2-2-2-2-2-2-2-|---------------|
A|-----------------|4-4-4-2-2-2----|
E|-----------------|---------------|
Outro:till end
G|-----------------|---------------|
D|-2-2-2-2-2-2-2-2-|2-2-2-2-2------|
A|-----------------|---------------|
E|-----------------|---------------|
I BElIeVE ITS 100% RiGHt
PleaseRATE!!!
Comments