Strokes - 12 51 Chords & Tabs

 

12 51 Chords & Tabs

Strokes Chords & Tabs

Version: 2 Type: Bass Tab 0 ratings
1 star 2 stars 3 stars 4 stars 5 stars
comments

12 51 Bass Tab

Intro
G:---------------------- |
D:---------------------- |
A:-7-7-7-7-7-7-7-7------ |       x6
E:---------------------- |


Verse
G:----------------|-----------------|----------------|---------------|
D:----------------|-----------------|----------------|---------------|
A:-7-7-7-7-7-7-7-7|-0-0-0-0-0-0-0-0-|-9-9-9-9-9-9-9-9|-2-2-2-2-2-2-2-|   x4
E:----------------|-----------------|----------------|---------------|

Bridge 
G:-----------------|-----------------|----------------|---------------|
D:-----------------|-----------------|----------------|---------------|
A:-3-3-3-3-3-3-3-3-|-3-3-3-3-3-3-3-3-|7-7-7-7-7-7-7-7-|7-7-7-7-7-7-7-7|   x4
E:-----------------|-----------------|----------------|---------------|

Instrumental
G:----------------------|--------------------|
D:----------------------|--------------------|
A:----------------------|-4--4-4--2--2-2-----|       x4
E:-0-0-0-0-0-0-0-0------|--------------------|
[ Tab from: http://www.guitartabs.cc/tabs/s/strokes/12_51_btab_ver_2.html ]
Verse
G:----------------|-----------------|----------------|---------------|
D:----------------|-----------------|----------------|---------------|
A:-7-7-7-7-7-7-7-7|-0-0-0-0-0-0-0-0-|-9-9-9-9-9-9-9-9|-2-2-2-2-2-2-2-|   x4
E:----------------|-----------------|----------------|---------------|

Instrumental
G:----------------------|--------------------|
D:----------------------|--------------------|
A:----------------------|-4--4-4--2--2-2-----|       x4
E:-0-0-0-0-0-0-0-0------|--------------------|

Bridge 
G:-----------------|-----------------|----------------|---------------|
D:-----------------|-----------------|----------------|---------------|
A:-3-3-3-3-3-3-3-3-|-3-3-3-3-3-3-3-3-|7-7-7-7-7-7-7-7-|7-7-7-7-7-7-7-7|   x4
E:-----------------|-----------------|----------------|---------------|

Verse
G:----------------|-----------------|----------------|---------------|
D:----------------|-----------------|----------------|---------------|
A:-7-7-7-7-7-7-7-7|-0-0-0-0-0-0-0-0-|-9-9-9-9-9-9-9-9|-2-2-2-2-2-2-2-|   x4
E:----------------|-----------------|----------------|---------------|

Instrumental
G:----------------------|--------------------|
D:----------------------|--------------------|
A:----------------------|-4--4-4--2--2-2---- |       x4
E:-0-0-0-0-0-0-0-0------|--------------------|


Outro
G:---------------------|---------------|
D:---------------------|---------------|
A:-7-7-7-7-7-7-7-7---- |-7-7-7-7-7-----|
E:---------------------|---------------|
Comments