Stroke 9 - Washin And Wonderin Chords & Tabs

 

Washin And Wonderin Chords & Tabs

Stroke 9 Chords & Tabs

Version: 1 Type: Chords 1 rating
1 star 2 stars 3 stars 4 stars 5 stars
comments

Washin And Wonderin Chords

   
Artist: Stroke 9
Album: Nasty Little Thoughts
Song: Washin' and Wonderin'
Transcribed by: Rachel Wiley

This is a great one that no one really knows yet by these guys.  It should be on the radio soon enough.  Enjoy, and if you have any questions e-mail me at Rodanthe@aol.com

Intro: There is none, it starts with a pickup

Verse: A, B, E, C#m

e|---------|--------|---------|--------|---------|--------|---------|--------|
B|5-5-x-5-7|9-9-x-7-|5-5-x-5-7|9-9-x-7-|5-5-x-5-7|9-9-x-7-|5-5-x-5-7|9-9-x-7-|
G|6-6-x-6-8|9-9-x-8-|6-6-x-6-8|9-9-x-8-|6-6-x-6-8|9-9-x-8-|6-6-x-6-8|9-9-x-8-|
D|7-7-x-7-9|9-9-x-9-|7-7-x-7-9|9-9-x-9-|7-7-x-7-9|9-9-x-9-|7-7-x-7-9|9-9-x-9-|
A|5-5-x-5-7|7-7-x-7-|5-5-x-5-7|7-7-x-7-|5-5-x-5-7|7-7-x-7-|5-5-x-5-7|7-7-x-7-|
E|---------|--------|---------|--------|---------|--------|---------|--------|


[ Tab from: http://www.guitartabs.cc/tabs/s/stroke_9/washin_and_wonderin_crd.html ]
========================================================================================================================


Tail Of The Sun
Stroke 9
I actually got this from our bass players teacher.


e|-0-0-2-2/4--4/2---0---4--2--0--2-0--4--|   
B|-0-0---xxx--xxx---2---2--2--0--0-0--4--|
G|-1-1-2-2/4--4/2---2---2--2--1--1-1--4--| 
D|-2-2--------------2---2--2--2--2-2--4--|  
A|-2-2--------------2---0--0--2--2-2--2--|
E|-0-0--------------0---0--0--0--0-0--x--|  




Stretch
     
           SCOOP
                                       __  __  __ __  __  
          /\                          /   |   |  |  ||  | |
         /  \                         |__ |   |  |  ||__| |
 _______/    \_______                    ||   |  |  ||    |
 \      SCOOP!      /                 ___/|__ |__|__||    .          
   \              /             
     \          /    
     /    __    \
    /    /  \    \ 
___/____/____\____\______________
     
Comments