Stroke 9 - Tail Of The Sun Chords & Tabs

 

Tail Of The Sun Chords & Tabs

Stroke 9 Chords & Tabs

Version: 3 Type: Tab 0 ratings
1 star 2 stars 3 stars 4 stars 5 stars
comments

Tail Of The Sun Tab

   
Song: Tail of the Sun
Artist: Stroke 9

Tablature by Eric (fookwanfoo@hotmail.com)

("Bare Minimum," just enought to get you by. Most of the little 
strums, hammer-ons, and bends, have been omitted. This will just 
be a guide to where your fingers should be on the guitar neck).

Intro Riff:

 E                    Amaj7		  E                       B
----------------------------------------------------------------------
-------------------------------------------------------------------0--
-9----x---9--11-/13---11h13--11-------x----11--9-------x--11---9---8--
-9----x---9--9--------11-----11---11--x----9---9---9---x--9----9---9--
-11---x---11-11-------12-----12---12--x----11------11--x--11---11--9--
-------------------------------------------------------------------7--

Verse Riff:
----------------------------------------------------------------------
-------------------------------------------------------------------0--
-9----x---9--11-/13---11h13--11-------x----11--9-------x--11---9---8--
-9----x---9--9--------11-----11---11--x----9---9---9---x--9----9---9--
-11---x---11-11-------12-----12---12--x----11------11--x--11---11--9--
-0----0---0--0-----------------------------------------------------7--
[ Tab from: http://www.guitartabs.cc/tabs/s/stroke_9/tail_of_the_sun_tab_ver_3.html ]
Lead guitar (verse riff)
-----|---------------------12----------||-----------------------------
-----|---------------------------------||-----------------------------
--11-|--9------9--11-/13------------11-||--9-------11-----------------
-----|---------------------------------||---------------9-------------
-----|---------------------------------||-----------------------------
-----|---------------------------------||-----------------------------


Pre-chorus:  Two chords in some kind strum pattern

 E              A
-0--------------0-----------------------------------------------------
-0--------------0-----------------------------------------------------
-1--------------2-----------------------------------------------------
-2--------------2-----------------------------------------------------
-2--------------0-----------------------------------------------------
-0--------------------------------------------------------------------

Pre-chorus Lead Guitar

----------------------------------------------------------------------
----------------------------------------------------------------------
-9---11---------------------------------------------------------------
----------------------------------------------------------------------
----------------------------------------------------------------------
----------------------------------------------------------------------

Chorus:

-0---0----0---0----0---------2------0----0----0---0----2----2---------
-3---3----3---3----3---------2------3----3----3---3----2----2---------
-2---2----2---2----2---------2------2----2----2---2----2----2---------
-0---0-------------0---------4------0----0-------------4----4---------
----------4---4----0--2--4---4----------------4---4----4----4---------
-----------------------------2-------------------------2----2---------

=====================================================================
Comments