Stroke 9 - Little Black Backpack Chords & Tabs

 

Little Black Backpack Chords & Tabs

Stroke 9 Chords & Tabs

Version: 3 Type: Tab 0 ratings
1 star 2 stars 3 stars 4 stars 5 stars
comments

Little Black Backpack Tab

Person: danthaman  

song: little black back pack

artist: stroke 9

Intro Gtr 1
--------------0--------------------0------|
----------------0---------------------0---|
-------0----2---0-----------0----2----0---|
-2-4-5----4-----------2-4-5----4------2---|
--------------------------------------3---|
------------------------------------------|

Intro Gtr 2
-------3--2-----3-----------3--5-5-5\-3---|
-------3--3-----0-----------3--5-7-5\-3---|
-------0--2-----0-----------0-------------|
-------2--0-----2-----------2-------------|
-------2--------3-----------2-------------|
-------0--------------------0-------------|

Verse Gtr 1
--------------0--------|
----------------0------|
-------0----2---0------|
-2-4-5----4------------|
-----------------------|
-----------------------|

"Well I know it..." Gtr 1 

Verse Gtr 2
-----------------------|
-------8---------------|
-------7---------------|
-------5---------------|
-------7---------------|
-----------------------|
 

--------------------------------0------------------------------3---|
-----0-------1-------1--------3--------0-------1-------1---------3-|
-------0-------0-------0-----------------0-------0-------0---------|
---0-------2-------2------4----------0-------2-------2------4------|
---------0-------3-------5-5---------------0-------3-------5-5-----|
-3---------------------------------3-------------------------------|

"Don't wanna talk about..." 

Chorus Gtr 1 & 2

-3-3-3-3-0-0-0-0-0-0-0-0-2-2-2-3--|------3----|
-3-3-3-3-1-1-1-1-1-1-1-1-3-3-3-3--|------0----|
-0-0-0-0-2-2-2-2-0-0-0-0-2-2-2-2--|------0----|
-0-0-0-0-2-2-2-2-2-2-2-2-0-0-0-0--|------2----|
-2-2-2-2-0-0-0-0-3-3-3-3----------|------3----|
-3-3-3-3--------------------------|-----------|

End on this chord 
[ Tab from: http://www.guitartabs.cc/tabs/s/stroke_9/little_black_backpack_tab_ver_3.html ]
Bridge Gtr 1 & 2

-3-3-3-3-3-3-3-3-3-3-3-3-3-3-3-3-2-2-2-2-2-2-2-2-3-3-3-3-3-3-3-3-|
-3-3-3-3-3-3-3-3-3-3-3-3-3-3-3-3-3-3-3-3-3-3-3-3-3-3-3-3-3-3-3-3-|
-0-0-0-0-0-0-0-0-0-0-0-0-0-0-0-0-2-2-2-2-2-2-2-2-0-0-0-0-0-0-0-0-|
-2-2-2-2-2-2-2-2-2-2-2-2-2-2-2-2-0-0-0-0-0-0-0-0-2-2-2-2-2-2-2-2-|
-3-3-3-3-3-3-3-3-2-2-2-2-2-2-2-2-----------------3-3-3-3-3-3-3-3-|
-----------------0-0-0-0-0-0-0-0---------------------------------|

Solo Gtr 1

-0-0-0-0-0-0--0--0--0--0--0--0-0-0-0-0-0-0--0--0--0--0--0--0-----------|
-5-5-5-5-5-5-10-10-10-11-11-11-5-5-5-5-5-5-10-10-10-11-11-11-15-17-----|
-------------------------------------------------------------------16--|
-----------------------------------------------------------------------|
-----------------------------------------------------------------------|
-----------------------------------------------------------------------|

 

----------14-15-14---------------------------------------------10-|
-15----15--------------12--12--12-----12--12----------------------|
----16-------------16--14b-14b-14r-12-14b-14r-12-11----12--9\7----|
----------------------------------------------------/9------------|
------------------------------------------------------------------|
------------------------------------------------------------------|

 

-----------------------|
-----------------------|
-4-4-4-2-2-2-4--4-2-0--|
-----------------------|
-----------------------|
-----------------------|

 

Final PreChorus Gtr 1
-------------------------------------------------|
-------------------------------------------------|
-------------------------------------------------|
-------------------------------------------------|
-------------0-0-0-0-0-0-3-3-3-3-3-3-5-5-5-5-5-5-|
-3-3-3-3-3-3-------------------------------------|
Palm Mute throughout 


Comments