Stroke 9 - Letters Chords & Tabs

 

Letters Chords & Tabs

Stroke 9 Chords & Tabs

Version: 2 Type: Tab 0 ratings
1 star 2 stars 3 stars 4 stars 5 stars
comments

Letters Tab

   
Letters.tab						Stroke 9

This is te first tab I have ever written, so have fun, 
its like the only tab to this song i have seen on the internet.
                                                                       
    Dmaj7           Amaj7           E               C#m7                 
E|--2---------------0---------------0---------------4------0--------------|
B|--2---------------2---------------0---------------5------2--------------|
G|--2---------------1---------------1---------------4------1--------------|
D|--0---------------2---------------2---------------6---or-2--------------|
A|--0---------------0---------------2---------------4---------------------|
E|--x---------------x---------------0---------------4---------------------|
    1 + 2 + 3 + 4 + 1 + 2 + 3 + 4 + 1 + 2 + 3 + 4 + 1 + 2 + 3 + 4 +
    d u d u d u d u d u d u d u d u d u d u d u d u d u d u d u d u         

(play this against the above chords)                                   
    Dsus2           A               E               C#m                    
E|------5-----5---------5-----5-------7-----7-----7---9-----9-----9-------|
B|----5-----5-----5---5-----5-----5-----9-----9---------9-----9-----------|
G|--7-----7-----7---6-----6-----6---9-----9-----9---9-----9-----9---------|
D|------------------------------------------------------------------------|
A|------------------------------------------------------------------------|
E|------------------------------------------------------------------------|
    1 + 2 + 3 + 4 + 1 + 2 + 3 + 4 + 1 + 2 + 3 + 4 + 1 + 2 + 3 + 4 +
    d u d u d u d u d u d u d u d u d u d u d u d u d u d u d u d u         

                                                                       
    Dsus2           A               E                                      
E|------5-----5---------5-----5-----7-------------------------------------|
B|----5-----5-----5---5-----5-----5-9-------------------------------------|
G|--7-----7-----7---6-----6-----6---9-------------------------------------|
D|------------------------------------------------------------------------|
A|------------------------------------------------------------------------|
E|------------------------------------------------------------------------|
    1 + 2 + 3 + 4 + 1 + 2 + 3 + 4 + 1 + 2 + 3 + 4 + 1 + 2 + 3 + 4 +
    d u d u d u d u d u d u d u d u d u d u d u d u d u d u d u d u         

Verse:  
8x                                                             
    d               A               E               C#m                    
E|--------2-------2-----------------------0-------0-------4-------4-------|
B|--------3-------3-------2-------2-------0-------0-------5-------5-------|
G|------------------------2-------2---------------------------------------|
D|--0-0-0-------0---------------------------------------------------------|
A|------------------0-0-0-------0-------------------4-4-4-------4---------|
E|----------------------------------0-0-0-------0-------------------------|
    1 + 2 + 3 + 4 + 1 + 2 + 3 + 4 + 1 + 2 + 3 + 4 + 1 + 2 + 3 + 4 +
    d u d u d u d u d u d u d u d u d u d u d u d u d u d u d u d u         

Chorus:                                                               
3x                                                                         
E|------------------------------------------------------------------------|
B|------------------------------------------------------------------------|
G|------------------------------------------------------------------------|
D|------------------------------------------------------------------------|
A|------------------------------------------------------------------------|
E|--D-/-/-/---/-/-/-A-simile...-----E---------------C#m-------------------|
    1 + 2 + 3 + 4 + 1 + 2 + 3 + 4 + 1 + 2 + 3 + 4 + 1 + 2 + 3 + 4 +
    d u d u d u d u d u d u d u d u d u d u d u d u d u d u d u d u         
[ Tab from: http://www.guitartabs.cc/tabs/s/stroke_9/letters_tab_ver_2.html ]
                                                                       
                                                                           
E|------------------------------------------------------------------------|
B|------------------------------------------------------------------------|
G|------------------------------------------------------------------------|
D|------------------------------------------------------------------------|
A|------------------------------------------------------------------------|
E|--D-/-/-/---/-/-/-A-simile...-----E let ring.....................-------|
    1 + 2 + 3 + 4 + 1 + 2 + 3 + 4 + 1 + 2 + 3 + 4 + 1 + 2 + 3 + 4 +
    d u d u d u d u d u d u d u d u d u d u d u d u d u d u d u d u         

1.28 Verse, Chorus 1.5x,]

Bridge: 2.02                                
    C#                              d               E                      
E|--4-------------------------------5---------------7---------------------|
B|--6-------------------------------7---------------9---------------------|
G|--6-------------------------------7---------------9---------------------|
D|--6-------------------------------7---------------9---------------------|
A|--4-------------------------------5---------------7---------------------|
E|--4-------------------------------5---------------7---------------------|
    1 + 2 + 3 + 4 + 1 + 2 + 3 + 4 + 1 + 2 + 3 + 4 + 1 + 2 + 3 + 4 +
    d u d u d u d u d u d u d u d u d u d u d u d u d u d u d u d u         

                                                                       
                    F#m                                                    
E|------------------2-----------------------------------------------------|
B|------------------2-----------------------------------------------------|
G|------------------2-----------------------------------------------------|
D|------------------4-----------------------------------------------------|
A|------------------4-----------------------------------------------------|
E|--C#--------------2---------------D---------------E---------------------|
    1 + 2 + 3 + 4 + 1 + 2 + 3 + 4 + 1 + 2 + 3 + 4 + 1 + 2 + 3 + 4 +
    d u d u d u d u d u d u d u d u d u d u d u d u d u d u d u d u         

                                                                       
                                                                           
E|------------------------------------------------------------------------|
B|------------------------------------------------------------------------|
G|------------------------------------------------------------------------|
D|------------------------------------------------------------------------|
A|-----build........................--------------------------------------|
E|--C#/-/-/-/-/-/-/-/-/-/-/-/-/-/-/-D---------------E---------------------|
    1 + 2 + 3 + 4 + 1 + 2 + 3 + 4 + 1 + 2 + 3 + 4 + 1 + 2 + 3 + 4 +
    d u d u d u d u d u d u d u d u d u d u d u d u d u d u d u d u         

                                                                       
                                                                           
E|------------------------------------------------------------------------|
B|------------------------------------------------------------------------|
G|------------------------------------------------------------------------|
D|------------------------------------------------------------------------|
A|------------------------------------------------------------------------|
E|--C#--------------F#m-------------D---------------E---------------------|
    1 + 2 + 3 + 4 + 1 + 2 + 3 + 4 + 1 + 2 + 3 + 4 + 1 + 2 + 3 + 4 +
    d u d u d u d u d u d u d u d u d u d u d u d u d u d u d u d u         

                                                                       
                                                                           
E|------------------------------------------------------------------------|
B|------------------------------------------------------------------------|
G|------------------------------------------------------------------------|
D|------------------------------------------------------------------------|
A|------------------------------------------------------------------------|
E|--C#--------------------------------------------------------------------|
    1 + 2 + 3 + 4 + 1 + 2 + 3 + 4 + 
    d u d u d u d u d u d u d u d u 

2.30 Verse 9x, Chorus, Chorus 1.5?, Bridge 1x: (d E C# F#m)

End: d E A
                                                                       
                                                                           
E|--5---------------7---------------0-------------------------------------|
B|--7---------------9---------------2-------------------------------------|
G|--7---------------9---------------2-------------------------------------|
D|--7---------------9---------------2-------------------------------------|
A|--5---------------7---------------0-------------------------------------|
E|--5---------------7---------------x-------------------------------------|
    1 + 2 + 3 + 4 + 1 + 2 + 3 + 4 + 1 + 2 + 3 + 4 + 1 + 2 + 3 + 4 +
    d u d u d u d u d u d u d u d u d u d u d u d u d u d u d u d u         

                                                                       
                                                                           
Tab by Jordan Frevert and John Forbing
Comments