Stroke 9 - Latest Disaster Chords & Tabs

 

Latest Disaster Chords & Tabs

Stroke 9 Chords & Tabs

Version: 1 Type: Bass Tab 0 ratings
1 star 2 stars 3 stars 4 stars 5 stars
comments

Latest Disaster Bass Tab

Artist: Stroke 9
Song: Latest Disaster
Album: Rip it Off

Intro:
G-----------------|  |------------------------|
D-----------------|  |------------------------|
A--444--444--444--|  |--444--444--444--4------| 2x
E-----------------|  |------------------2--2--|

Verse:
G-----------------|     |------------------------|
D-----------------|     |------------------------|
A--444--444--444--| 2x  |--444--444--444--4------| 2x
E-----------------|     |------------------2--2--|

Pre Chorus:
G-----------------|    |---|
D-----------------|    |---|
A--4444-----------| 3x |-4-|
E-------4-222222--|    |---|
[ Tab from: http://www.guitartabs.cc/tabs/s/stroke_9/latest_disaster_btab.html ]
Chorus:
G------------------------------------------------------------|
D------------------------------------------------------------|
A----------------------44444444------------------------------|Pause then Repeat
E--44444444--22222222------------44444444--2222222222222222--|

Fill:
G-----------------|
D-----------------|
A--444--444--444--|
E-----------------|

Bridge 1:
G------------------|
D------------------|
A--44--44--44------| 2x
E--------------22--|

Bridge Part 2:
G----------------------------------------|
D----------------------------------------|
A--44444444------------------------------|
E------------44444444--2222222222222222--|

Outro Chorus:
G--------------------------------|    
D--------------------------------|    
A--44444444----------------------| 3x (Third time hold F#)
E------------44444444--22222222--|    

Outro:
G-----------------|
D-----------------|
A--444--444--444--|
E-----------------|
Comments