Stroke 9 - Kick Some Ass Chords & Tabs

 

Kick Some Ass Chords & Tabs

Stroke 9 Chords & Tabs

Version: 1 Type: Tab 0 ratings
1 star 2 stars 3 stars 4 stars 5 stars
comments

Kick Some Ass Tab

#----------------------------------PLEASE NOTE---------------------------------#
#This file is the author's own work and represents their interpretation of the #
#song. You may only use this file for private study, scholarship, or research. #
#------------------------------------------------------------------------------#

Title: Kick Some Ass
Artist: Stroke9
Tabbed by: Alex Alexaieff
Tuning: Normal Tuning  * drop D one guitar #1*

Ok so they are two guitars in this song and one bass (duh)... I'm gonna put up the guitar tabs for now... I will post up the bass one later... for guitar #1 you play your part with a drop D... guitar #2 is a bit tricky, I am not %100 sure this is correct but I am trying my best because I have not seen any Tabs for this song yet... unless I missed it.... so here it is... my first Tab of one of my favorite bands, Stoke 9

"How may people wanna kick some ass..."
Guitar #1 
* Tuned Drop "D" 
Play 2 Times
Intro
|--------------------------------------------------------------------------
|--------------------------------------------------------------------------
|--------------------------------------------------------------------------
|---12--12-------------12--12-------------5--5------------5--5-------------
|---12--12-------------12--12-------------5--5------------5--5-------------
|---12--12-------------12--12-------------5--5------------5--5-------------

Guitar #2 
*Normal Tuning
Play 2 Times
|------------2-2-2-2------------2-2-2-2-----2-3-5--2-3-5-5-7-5-3---------
|------------3-3-3-3------------3-3-3-3---------------------------------
|------------2-2-2-2------------2-2-2-2---------------------------------
|----------------------------------------------------------------------
|-----------------------------------------------------------------------
|-----------------------------------------------------------------------

Guitar #1
Play 4 Times
*Palm Muted
|------------------------------------------------------------------------------
|------------------------------------------------------------------------------
|------------------------------------------------------------------------------
|-----12--12---12-----9--9--9------7--7--7-------------------------------------
|---12--12---12------9--9--9------7--7--7--------------------------------------
|--12--12---12------9--9--9------7--7--7---------------------------------------

Guitar #2
Play 4 Times
|------------------------------------------------------------------------------
|------------------------------------------------------------------------------
|------------------------------------------------------------------------------
|--12-12---------9-9---------7-7--12-------------------------------------------
|--12-12---------9-9---------7-7--12-------------------------------------------
|--10-10---------7-7---------5-5--10-------------------------------------------


Guitar #1
Play 2 Times
|----------------------------------------------------------------------------
|----------------------------------------------------------------------------
|----------------------------------------------------------------------------
|--12-12-12-12-12-12-12-12---5-5-5-5-5-5-5-5---------------------------------
|--12-12-12-12-12-12-12-12---5-5-5-5-5-5-5-5---------------------------------
|--12-12-12-12-12-12-12-12---5-5-5-5-5-5-5-5---------------------------------

Guitar #2
Play 2 Times
|------------------------------------------------------------------------------
|------------------------------------------------------------------------------
|------------------------------------------------------------------------------
|----------------------------------------------7-7-7---------------------------
|----------------------------------------------7-7-7---------------------------
|----------------------------------------------5-5-5---------------------------

Guitar #1 
Play 4  Times
|--------------------------------------------------------------------------
|--------------------------------------------------------------------------
|--------------------------------------------------------------------------
|---12--12-------------12--12-------------5--5------------5--5-------------
|---12--12-------------12--12-------------5--5------------5--5-------------
|---12--12-------------12--12-------------5--5------------5--5-------------

Guitar #2 
Play 4  Times
|------------2-2-2-2------------2-2-2-2-----2-3-5--2-3-5-5-7-5-3-----
|------------3-3-3-3------------3-3-3-3------------------------------
|------------2-2-2-2------------2-2-2-2------------------------------
|--------------------------------------------------------------------
|--------------------------------------------------------------------
|--------------------------------------------------------------------

Guitar #1
Play 2 Times
|------------------------------------------------------------------------------
|------------------------------------------------------------------------------
|------------------------------------------------------------------------------
|----9------7-----5------------------------------------------------------------
|---9-9---7-7---5-5------------------------------------------------------------
|--9---9-7---7-5---------------------------------------------------------------

Guitar #2 (Im quite sure about Guitar #2... Please feel free to E-mail me the corrections)
Play 2 Times
|----5------3-----2-3------------------------------------------------------------
|---3-3---3-3---3-3-3--3-------------------------------------------------------------
|--2---2-2---2-2------2------------------------------------------------------------
|------------------------------------------------------------------------------
|------------------------------------------------------------------------------
|------------------------------------------------------------------------------

Guitar #1
Play 4 Times
*Palm Muted
|----------------------------------------------------------------------------
|----------------------------------------------------------------------------
|----------------------------------------------------------------------------
|-----12--12---12-----9--9--9------7--7--7-----------------------------------
|---12--12---12------9--9--9------7--7--7------------------------------------
|--12--12---12------9--9--9------7--7--7-------------------------------------

Guitar #2
Play 4 Times
|------------------------------------------------------------------------------
|------------------------------------------------------------------------------
|------------------------------------------------------------------------------
|--12-12-12--------9-9-9--------7-7-7-12---------------------------------------
|--12-12-12--------9-9-9--------7-7-7-12---------------------------------------
|--10-10-10--------7-7-7--------5-5-5-10---------------------------------------

[ Tab from: http://www.guitartabs.cc/tabs/s/stroke_9/kick_some_ass_tab.html ]
Guitar #1
Play 2 Times
|-------------------------------------------------------------------------
|-------------------------------------------------------------------------
|-------------------------------------------------------------------------
|--12-12-12-12-12-12-12-12---5-5-5-5-5-5-5-5------------------------------
|--12-12-12-12-12-12-12-12---5-5-5-5-5-5-5-5------------------------------
|--12-12-12-12-12-12-12-12---5-5-5-5-5-5-5-5------------------------------

Guitar #2
Play 2 Times
|------------------------------------------------------------------------------
|------------------------------------------------------------------------------
|------------------------------------------------------------------------------
|----------------------------------------------7-7-7---------------------------
|----------------------------------------------7-7-7---------------------------
|----------------------------------------------5-5-5---------------------------


Guitar #1 
Play 4  Times
|-------------------------------------------------------------------------
|-------------------------------------------------------------------------
|-------------------------------------------------------------------------
|---12--12-------------12--12-------------5--5------------5--5------------
|---12--12-------------12--12-------------5--5------------5--5------------
|---12--12-------------12--12-------------5--5------------5--5------------

Guitar #2 
Play 4  Times
|------------2-2-2-2------------2-2-2-2-----2-3-5--2-3-5-5-7-5-3------
|------------3-3-3-3------------3-3-3-3-------------------------------
|------------2-2-2-2------------2-2-2-2-------------------------------
|---------------------------------------------------------------------
|---------------------------------------------------------------------
|---------------------------------------------------------------------

"But I'm really just a sensative artist..."
Guitar #1
Play 2 Times
|----------------------------------------------------------------------
|----------------------------------------------------------------------
|----------------------------------------------------------------------
|----9------7-----5----------------------------------------------------
|---9-9---7-7---5-5----------------------------------------------------
|--9---9-7---7-5-------------------------------------------------------

Guitar #2 (Im quite sure about Guitar #2... Please feel free to E-mail me the corrections)
Play 2 Times
|----5------3-----2-3------------------------------------------------------------
|---3-3---3-3---3-3-3--3-------------------------------------------------------------
|--2---2-2---2-2------2------------------------------------------------------------
|------------------------------------------------------------------------------
|------------------------------------------------------------------------------
|------------------------------------------------------------------------------


Guitar #1
*Doesnt play for this part
|------------------------------------------------------------------------------
|------------------------------------------------------------------------------
|------------------------------------------------------------------------------
|------------------------------------------------------------------------------
|------------------------------------------------------------------------------
|------------------------------------------------------------------------------

Guitar #2
Play 4 Times 
*this part is the tricky part I'm not %100 sure about... Please feel free to correct this and e-mail me... thanks
|----14-14--8--14-14-9-9-9-10-x-x-9-9-9-x-x-10-10-10-8-8-8------------
|------------------------------------------------------------------------------
|------------------------------------------------------------------------------
|------------------------------------------------------------------------------
|------------------------------------------------------------------------------
|------------------------------------------------------------------------------


Guitar #1 
Play 4  Times
|--------------------------------------------------------------------------
|--------------------------------------------------------------------------
|--------------------------------------------------------------------------
|---12--12-------------12--12-------------5--5------------5--5-------------
|---12--12-------------12--12-------------5--5------------5--5-------------
|---12--12-------------12--12-------------5--5------------5--5-------------

Guitar #2 
Play 4  Times
|------------2-2-2-2------------2-2-2-2-----2-3-5--2-3-5-5-7-5-3----
|------------3-3-3-3------------3-3-3-3-----------------------------
|------------2-2-2-2------------2-2-2-2-----------------------------
|-------------------------------------------------------------------
|-------------------------------------------------------------------
|-------------------------------------------------------------------


Guitar #1
Play 4 Times
|------------------------------------------------------------------------------
|------------------------------------------------------------------------------
|------------------------------------------------------------------------------
|---12-----------------------------------5----------------------------------------
|---12-----------------------------------5----------------------------------------
|---12-----------------------------------5----------------------------------------

Guitar #2
Play 4 Times
|------------------------------------------------------------------------------
|------------------------------------------------------------------------------
|------------------------------------------------------------------------------
|----------------------------------------------7-----------------------------
|----------------------------------------------7-----------------------------
|----------------------------------------------5-----------------------------


Guitar#1
Play 4 Times
|------------------------------------------------------------------------------
|------------------------------------------------------------------------------
|------------------------------------------------------------------------------
|-9-9-9-9-7-7-7-7-5-5-5-5-5-5-5-5-----------------------------------------------
|-9-9-9-9-7-7-7-7-5-5-5-5-5-5-5-5-----------------------------------------------
|-9-9-9-9-7-7-7-7-5-5-5-5-5-5-5-5-----------------------------------------------

Guitar #2
Play 4 Times
|--------------------------------|
|--------------------------------|
|--------------------------------|
|-9-9-x-x-7-7-x-x-5-5-x-x--------|
|-9-9-x-x-7-7-x-x-5-5-x-x--------|
|-7-7-x-x-5-5-x-x-3-3-x-x--------|

Music Fades out
END

Well I hope you enjoy my frst Tab ever... and once again, please feel free to e-mail any comments and/or corrections E-mail me at Alexi_The_Great@hotmail.com
Thanks.. Enjoy
Comments